Oops, an error
Loading. Please wait.

No Podemos Seguir Así Tab

8 views 1 this week
no commentswrite comment
1 2 3 4 5
3 more votes to show rating
add to favorites
×
Save as Personal and add changes to this tab that will be seen only by you. Learn more ›
×
You can save this tab as Personal to edit and correct it or add notes. All changes will be seen only by you. Learn more »
save as personal
new!
launch autoscroll
font size
0
reset
how to read this tab
guitar tuner
Autoscroll
slow
fast
+/-
esc
set tempo
stop
INTRO:
NOTA:  Las notas del bajo son E  - C - D - C

E--------------------------------------
B--------------------------------------
G-----12?.-----------------------------
D------x?.-----------------------------
A-----10?.-----------------------------
E--------------------------------------

E------------------------------------
B------------------------------------
G--------55--77--55------------------
D---22---xx--xx--xx------------------
A-- 22---33--55--33------------------
E---00-------------------------------

D5
No podemos seguir así
G5
Con esta economía con esta política
D5
No podemos seguir así
G5 (deja sonar)
Y con tanta pobreza en el país
D5
No podemos seguir así
G5
Con esta economía con esta política
D5
No podemos seguir así
G5 (P.M.)
Y que ojala todo cambie

ESTROFA:
E------------------------------------------------
B------------------------------------------------
G--------55--77--55------------------------------
D---22---xx--xx--xx------------------------------
A-- 22---33--55--33------------------------------
E---00-------------------------------------------
    ..
Vueltos de nosotros es almuerzos para pobres
Ojala se lo pudiéramos dar
Pero con esta economía indecisa
No sabemos que va a pasar

ESTRIBILLO

ESTROFA:
Es lamentable ver a madres
Con sus hijos pidiendo limosna
Mas lamentable es
No poder colaborar

ESTRIBILLO

FIN
Suggest correction
Give kudos to tab author, rate the tab!
1 2 3 4 5
comments
print report bad tab
guest
Wanna post a correction for this tab? Suggest correction