Oops, an error
Loading. Please wait.

Otro Día Más Tab

11 views 1 this week
no commentswrite comment
1 2 3 4 5
3 more votes to show rating
add to favorites
×
Save as Personal and add changes to this tab that will be seen only by you. Learn more ›
×
You can save this tab as Personal to edit and correct it or add notes. All changes will be seen only by you. Learn more »
save as personal
new!
launch autoscroll
font size
0
reset
how to read this tab
guitar tuner
Autoscroll
slow
fast
+/-
esc
set tempo
stop
IntrO:
E 222-222-25----2---333-3322-255-3-0
B -----------35----------------------3
G -----------------------------------
D -----------------------------------
A -----------------------------------
E -----------------------------------

D(Apagado) D Dsus G - D Dsus G - D E Fsus G (Estos 4 apagados xD)

D                        G
Que te parece si este año no nos juntamos
D                               G
Miro el pasado vivo el presente y estamos peleados
D                             G
Que significa para ustedes toda esta mierda
D                                    G
Ya todos sabes que en definitiva son puras peleas

D      C         G
Este día es otro día más
D      C          G          G(deja sonar)
Y no une a nadie solo separa

D                              G
Que bueno estaría que cada uno haga lo que quiera
D                              G
Y absurdo seria pretender que todos sigan tus reglas

D(apagado)(deja sonar)
Estemos tranquilos y en paz

No quiero más problemas
D(apagado)(Deja sonar)
Estemos tranquilos y en paz

No quiero más problemas

ESTRIBILLO X1

PUENTE:
NOTA : TODAS LAS NOTAS EN LA CUERDA A LLEVAN P.M.
PARTE 1
E --------------------------------------
B --------------------------------------
G --------------------------------------     (X4)
D ------0-------0-------0---------4p0---
A --55-----55------55-------55----------
E --------------------------------------

PARTE 2

E--------------------------------------------------
B--------------------------------------------------
G--------------------------------------------------
D-----0--------7----------------4p0---------4p0----
A-55------55-------(X3)----55---------55-----------
E--------------------------------------------------

ESTRIBILLO X1
TERMINA EN G

Y LA ULTIMA PARTECITA NO LA SAQ :P
Suggest correction
Give kudos to tab author, rate the tab!
1 2 3 4 5
comments
print report bad tab
guest
Wanna post a correction for this tab? Suggest correction