Oops, an error
Loading. Please wait.

Sólo Deseo Bass

27 views 3 this week
no commentswrite comment
1 2 3 4 5
3 more votes to show rating
add to favorites
×
Save as Personal and add changes to this tab that will be seen only by you. Learn more ›
×
You can save this tab as Personal to edit and correct it or add notes. All changes will be seen only by you. Learn more »
save as personal
new!
launch autoscroll
font size
0
reset
guitar tuner
Autoscroll
slow
fast
+/-
esc
set tempo
stop
INTRO
G---------------------------------------
D---------------------------------------
A--33333333-----------------------------
E----------33333333--55555555--11111111-

G-----------------------------------------
D-----------------------------------------
A-33333333---------------------8888-77-55-
E----------33333333--55555555-------------

ESTROFA (DEJA SONAR CADA NOTA)
(...QUE SUELE SORPRENDER...)
G------------------------------------------
D------------------------------------------
A--3----------------------------------------
E------3-----5------1-----------------------
(...NO PUEDO ENTENDER...)
G---------------------------------------------
D---------------------------------------------
A-33333333------------------------------------
E----------33333333-55555555-11111111---------

G----------------------------------------------
D----------------------------------------------
A-33333333-------------------------------------
E---------33333333-55555555-1------------------

(DEJA SONAR EL FA (1))
ESTRIBILLO
G----------------------------------------------
D----------------------------------------------
A--3333333333333333-5555555555555555-----------
E----------------------------------------------

G-----------------------------------------------
D-----------------------------------------------
A-7777777777777777-8888888888888888-------------
E----------------------------------------------- X4

(DEJA SONAR EL DO (3))
(... SE QUE ESTAS BIEN...)
G------------------------------------------------
D------------------------------------------------
A--3333333---------------------------------------
E----------33333333-55555555-111111111-----------

PUENTE
G-------------------------------------------------
D-------------------------------------------------
A--33---------------33----------------------------
E-----33-55-11-33------33-55-11-33----------------

ESTRIBILLO ( PARA EN FA (8))
OUTTRO: ES IGUAL A LA INTRO
Suggest correction
Give kudos to tab author, rate the tab!
1 2 3 4 5
comments
print report bad tab
guest
Wanna post a correction for this tab? Suggest correction