Oops, an error
Loading. Please wait.

Canta Al Señor Tab

131 views 1 this week
no commentswrite comment
1 2 3 4 5
3 more votes to show rating
add to favorites
×
Save as Personal and add changes to this tab that will be seen only by you. Learn more ›
×
You can save this tab as Personal to edit and correct it or add notes. All changes will be seen only by you. Learn more »
save as personal
new!
launch autoscroll
font size
0
reset
how to read this tab
guitar tuner
Autoscroll
slow
fast
+/-
esc
set tempo
stop
esta es una de mis canciones favoritas, de mi banda favorita
METAMORFFOSIS, y esta version rock esa muy chida.

*Nota: Usen (PM) palm mute cuando estan tocando el intro

Intro:

D.-------------8h10-------------------------------5h7-
A.-8-8-8-8-8-8------------------8h10--5-5-5-5-5-5-----
E.------------------8-8-8-8-8-8-----------------------

D.------------------------------8h10-----------------8-
A.---------8-6------8-8-8-8-8-8----------------------8-
E.-6-6-6-6-----8-6-------------------8-8-8-8-8-8-8-6-6-

estos son los acordes F-C-D-Bb, usenlos como "powerchords"

Usenlos como estan abajo

  F       C     D      Bb
D-10-  D-xxx  D-7--  D-xxx
A-8--  A-10-  A-5--  A-8--
E-xxx  E-8--  E-xxx  E-6--

El ritmo es un poco dificil porque es muy rapido les recomiendo
que escuchen bien donde van los cambios

Bueno aqui esta la cancion

F         C         D      Bb     C
Mi Cristo, mi rey, nadie es como tu
         F                C                  D  Bb  C
Toda mi vida, quiero exaltar las maravillas de tu amor
F        C         D         Bb         C
Consuelo, refugio, torre de fuerza y poder
         F           C                  D  Bb C
Todo mi ser, lo que yo soy, nunca sese de adorar

F           C        D       Bb
Cante al Señor toda la creacion
F           C        D         Bb
Honra y poder majestad sea al rey
F           C        D     Bb
Montes caeran y el mar rugira
C
Al sonar de tu nombre

F            C       D        Bb
Canto con gozo al mirar tu poder
F               C      D     Bb
Por siempre yo te amare y dire
F       C        D          Bb Bb-C
Incomparables promesas  me das Señor

puente F-C-D-Bb
y se repite la cancion

Este es el solo de fondo que se toca mientras cantas
la segunda linea. Esta dificil, asi que practiquenlo mucho.

D.-10---10---10---10---10---10---10---10---
A.----8----8----8----8----8----8----8----8-
E.-----------------------------------------

D.-----------------------------------------
A.-10---10---10---10---10---10---10---10---
E.----8----8----8----8----8----8----8----8-

D.---7---7---7---7-------------------------
A.-5---5---5---5-----8---8---8---8---------
E.-----------------6---6---6---6-----------

D.-----------------------------------------
A.-10---10---10---10---10---10---10---10---
E.----8----8----8----8----8----8----8----8-

Bueno amigos, esto es too lo que necesitan saber para
poder tocar esta cancion, espero que les guste.

Saludos a mi Iglesia Lirio de los Valles aya en Colusa
y a todos mis hermanos en Cristo, pero especialmente para
Kristen y Ana, ellas siempre me apoyan, las quiero mucho.

Bueno si tienen preguntas, comentarios, quejas, insultos
felicitaciones o lo que sea mandenmelo a mi email.

Yo soy el Metamorffosis #1 fan y soy el primeo en transcribir
una de sus canciones.

Bendiciones!
Suggest correction
Give kudos to tab author, rate the tab!
1 2 3 4 5
comments
print report bad tab
guest
Wanna post a correction for this tab? Suggest correction