Oops, an error
Loading. Please wait.

Te Bendeciré Tab

505 views 1 this week
no commentswrite comment
1 2 3 4 5
3 more votes to show rating
add to favorites
launch autoscroll
font size
0
reset
how to read this tab
guitar tuner
Autoscroll
slow
fast
+/-
esc
set tempo
stop
Help us to improve Ultimate-Guitar.com Take our survey!
×
Intro (x1): | G | D | Em7 | C9 |


       G
E:--3----------------------------------------:
A:-----2------2-----------------2------------:
D:---------0-----------------0---------------:
G:----------------------0--------------------:
B:------------------3------------------------:
E:-------------------------------------------:

      D
E:-------------------------------------------:
A:-------------------------------------------:
D:--0----------------------------------------:
G:-----2-------2------------2----------------:
B:---------3------------3--------------------:
E:-----------------2-------------------------:

      Em7
E:---0---------------------------------------:
A:------2---------2-------------------2------:
D:-----------2-------------------2-----------:
G:-------------------------0-----------------:
B:--------------------3----------------------:
E:-------------------------------------------:

          C9
E:-------------------------------------------:
A:----3--------------------------------------:
D:----------0-h-2----------------------------:
G:--------------------0----------------------:
B:----------------------------3--------------:
E:----------------------------------3--------:

Verso (x2):
| G | Em7 D | Em7 | C9 |
| G | Em7 D | C9 D | Em7 | C9 D | G |

      G
E:--3----------------------------------------:
A:-----2------2-----------------2------------:
D:---------0-----------------0---------------:
G:----------------------0--------------------:
B:------------------3------------------------:
E:-------------------------------------------:

        Em7                        D
E:----0--------------------------------------:
A:------2------------------------------------:
D:-------------------0-----------------------:
G:--------------0---------2-------2----------:
B:----------3-----------------3--------------:
E:-------------------------------------------:

         Em7
E:---0---------------------------------------:
A:------2---------2-------------------2------:
D:-----------2-------------------2-----------:
G:-------------------------0-----------------:
B:--------------------3----------------------:
E:-------------------------------------------:

         C9
E:-------------------------------------------:
A:----3--------------------------------------:
D:----------0-h-2----------------------------:
G:--------------------0----------------------:
B:----------------------------3--------------:
E:-------------------------------------------:

        G
E:--3----------------------------------------:
A:-----2------2-----------------2------------:
D:---------0-----------------0---------------:
G:----------------------0--------------------:
B:------------------3------------------------:
E:-------------------------------------------:

        Em7                        D
E:----0--------------------------------------:
A:------2------------------------------------:
D:-------------------0-----------------------:
G:--------------0---------2-------2----------:
B:----------3-----------------3--------------:
E:-------------------------------------------:

        C9                               D
E:-------------------------------------------:
A:---3---------------------------------------:
D:-------2-------------0---------------------:
G:----------------0----------2---------2-----:
B:------------3--------------------3---------:
E:-------------------------------------------:

            Em7
E:------0------------------------------------:
A:-----------2-------------------------------:
D:----------------2--------------------------:
G:---------------------0---------------------:
B:-------------------------------------------:
E:-------------------------------------------:

        C9                               D
E:-------------------------------------------:
A:---3---------------------------------------:
D:-------2-------------0---------------------:
G:----------------0----------2---------------:
B:------------3--------------------3---------:
E:---------------------------------------2---:

            G
E:-----3-------------------------------------:
A:---------2---------------------------------:
D:--------------0----------------------------:
G:------------------0------------------------:
B:-------------------------------------------:
E:-------------------------------------------:

Coro (x4):
| G | D | Em7 | C9 |

               G
E:-------3-----------------------------------:
A:-------------2-----------------------------:
D:--------------------0----------------------:
G:-----------------------------0-------------:
B:-------------------------------------------:
E:-------------------------------------------:

              D
E:-------------------------------------------:
A:-------------------------------------------:
D:------0------------------------------------:
G:------------2------------------------------:
B:------------------3------------------------:
E:-------------------------2-----------------:

              Em7
E:-------0-----------------------------------:
A:--------------2----------------------------:
D:---------------------2---------------------:
G:-------------------------------0-----------:
B:-------------------------------------------:
E:-------------------------------------------:

               C9
E:-------------------------------------------:
A:-------3-----------------------------------:
D:-------------0-h-2-------------------------:
G:-------------------------0-----------------:
B:----------------------------------3--------:
E:-------------------------------------------:

De aqui en adelante la cancion se repite completa pero en acordes:

Verso (x2):
| G | Em7 D | Em7 | C9 |
| G | Em7 D | C9 D | Em7 | C9 D | G |

Coro (x4):
| G | D | Em7 | C9 |

Solo:
| G | D | Em7 | C9 |

Nota:
 \ = slash, h = hameron, p = puloff, v = vibrato.

              G                           D
E:-------------------------------------------:
A:-------------------------------------------:
D:-------------------------------------------:
G:-\12---------------------------------------:
B:---12-12\-13-12-12v-12\-9-12-12\-13-12-12v-:
E:-------------------------------------------:

             Em7                          C9
E:-------------------------------------------:
A:-------------------------------------------:
D:-------------------------------------------:
G:-------------------------------------------:
B:-\-12---12---------------------------------:
E:-----14---12-\-14-14-\-15v-15-15-\-17v-----:

              G                            D
E:-------------------------------------------:
A:-------------------------------------------:
D:-------------------------------------------:
G:--------------19---------------------------:
B:----------20-------------------------------:
E:-19\-20-19--------19-22-20-19-19h-20p-19---:

              Em7                         C9
E:-------------------------------------------:
A:-------------------------------------------:
D:------------------\12------------15--------:
G:--------------------12-14-14b15----14b15---:
B:-20v-19v-22v-------------------------------:
E:-------------19v---------------------------:

                               G
E:-------------------------------------------:
A:-------------------------------------------:
D:-------------------------------------------:
G:-14p12h14v-11h12p11v--------14-------------:
B:-------------------------15------\17-15v---:
E:--------------------15-14------------------:


Formacion de acordes:

       G   ||    D    ||   Em7   ||     C9
E:-----3---||----X----||----0----||------X----:
A:-----2---||----X----||----2----||------3----:
D:-----0---||----0----||----2----||------2----:
G:-----0---||----2----||----0----||------0----:
B:-----3---||----3----||----3----||------3----:
E:-----3---||----2----||----3----||------3----:

Bien eso debe ser suficiente, espero que esta adoracion sea
de muchisimas bendiciones para todos como lo ha hecho en mi
Y mi iglesia, gracias por ver...
Suggest correction
Give kudos to tab author, rate the tab!
1 2 3 4 5
comments
print report bad tab
guest
You may want to rate the tab now too:
select rating
Wanna post a correction for this tab? Suggest correction