Oops, an error
Loading. Please wait.

Tal Vez Y Algun Día Tab

35 views 1 this week
no commentswrite comment
1 2 3 4 5
3 more votes to show rating
add to favorites
launch autoscroll
font size
0
reset
how to read this tab
guitar tuner
Autoscroll
slow
fast
+/-
esc
set tempo
stop
Help us to improve Ultimate-Guitar.com Take our survey!
×
HOLA VI QUE ESTABAN PIDIENDO MUCHO ESTA CANCIÓN, UNA DE LAS MEJORES DE
INSITE Y QUISE SACARLA ESTA 100% BIEN EL PROBLEMA PUDE SER QUE ESTA ALGO
CONFUSA ASÍ QUE TRATE DE SEPARARLA Y PONER INSTRUCCIONES,
MI CORREO apsoxca@ PARA CUALQUIER DUDA, CONSEJO, RECLAMO,
PETICIÓN,ETC...ESTARE SUBIENDO OTRAS TABS QUE SAQUE ESTOS DÍAS DE OCIO

Escuchen la canción para ubicarse y los ritmos

Intro

e)---------------------------------------------------------------------]
b)---------------------------------------------------------------------]
g)---------------999---------111111---------121212---------141414------]
d)-11///---------999---------111111---------121212---------141414------]
a)-11///---------777---------9-9-9----------101010---------121212------]
E)-9-///-0000000-----0000000--------0000000--------0000000-------------]
         *******     *******        *******        *******

*=palm mute
-------------------------------------------------------------------------

e)---------------------------------------------------------------------]
b)---------------------------------------------------------------------]
g)---------------------------------------------------------------------]
d)-5-5555-555-555-----4-4444-444-444----2-2222-222-222-----------------]
a)-5-5555-555-555-x2--4-4444-444-444-x2-2-2222-222-222-x2--------------]
E)-3-3333-333-333-----2-2222-222-222----0-0000-000-000-----------------]
   * **** *** ***     * **** *** ***    * **** *** ***

e)---------------------------------------------------------------------]
b)---------------------------------------------------------------------]
g)---------999---------111111------------------------------------------]
d)-2-22222-999-2-22222-111111------------------------------------------]
a)-2-22222-777-2-22222-9-9-9-------------------------------------------]
E)-0-00000-----0-00000-------------------------------------------------]
   * *****     * *****


e)----------------------------------------------------------------------]
b)----------------------------------------------------------------------]
g)-7~~~---11~~~-12~~~----------------------------999-----------111111---]
d)-x~~~---x~~~--x-~~~-2-2222-222-222-----2-22222-999-2-22222---111111---]
a)-5~~~---9~~~--10~~~-2-2222-222-222-x2--2-22222-777-2-22222----9-9-9---]
E)--------------------0-0000-000-000-----0-00000-----0-00000------------]
                      * **** *** ***     * *****     * *****

-------------------------------------------------------------------------


e)------------------------------------------------------------------]
b)---14----------14-------------------------------------------------]
g)-----14~~--------14~~-----44-444444/99-999/777-7777---------------]x2<--
d)-12-------11-12-----------xx-xxxxxx/xx-xxx/xxx-xxxx---------------]
a)--------------------------22-222222/77-777/555-5555---------------]
E)------------------------------------------------------------------]

e)--------------------------------------------------------------------]
b)--------------------------------------------------------------------]
g)--------------------------------------------------------------------]
d)-44-44-44-444455-55-55-555577-77-7777-77-7777-77-777----------------]
a)-44-44-44-444455-55-55-555577-77-7777-77-7777-77-777----------------]
E)-22-22-22-222233-33-33-333355-55 5555-55-5555-55-555----------------]
   || || ||     || || ||  esto es que ahoguen el sonido para que no digan
                          que no suena


e)----------------------------------------------------------------------]
b)----------------------------------------------------------------------]
g)-66-66-66-666677-77-77-777799-99-9999-99-9999-99-999------------------]
d)-xx-xx-xx-xxxxxx-xx-xx-xxxxxx-xx-xxxx-xx-xxxx-xx-xxx------------------]
a)-44-44-44-444455-55-55-555577-77-7777-77-7777-77-777------------------]
E)----------------------------------------------------------------------]
   || || ||     || || ||

-------------------------------------------------------------------------


Guitarra 1

e)----------------------------------------------------------------------]
b)----------------------------------------------------------------------]
g)-44-4444-4444-4444-4444-4444-4444-4444-55-55-5555-5555-5555-----------]
d)-xx-xxxx-xxxx-xxxx-xxxx-xxxx-xxxx-xxxx-xx-xx-xxxx-xxxx-xxxx-----------]
a)-22-2222-2222-2222-2222-2222-2222-2222-33-33-3333-3333-3333-----------]
E)----------------------------------------------------------------------]


e)----------------------------------------------------------------------]
b)----------------------------------------------------------------------]
g)-33-3333-3333-3333-99~~~~---------------------------------------------]
d)-xx-xxxx-xxxx-xxxx-xx~~~~---------------------------------------------]
a)-55-5555-5555-5555-77~~~~---------------------------------------------]
E)----------------------------------------------------------------------]


Guitarra 2
e)----------------------------------------------------------------------]
b)----------------------------------------------------------------------]
g)-44-4444-4444-4444-4444-4444-4444-4444-55-55-5555-5555-5555-----------]
d)-44-4444-4444-4444-4444-4444-4444-4444-55-55-5555-5555-5555-----------]
a)-22-2222-2222-2222-2222-2222-2222-2222-33-33-3333-3333-3333-----------]
E)-00-0000-0000-0000-0000-0000-0000-0000-00-00-0000-0000-0000-----------]


e)----------------------------------------------------------------------]
b)----------------------------------------------------------------------]
g)-33-3333-3333-3333-99~~~~---------------------------------------------]
d)-33-3333-3333-3333-99~~~~---------------------------------------------]
a)-55-5555-5555-5555-77~~~~---------------------------------------------]
E)-00-0000-0000-0000-00-------------------------------------------------]


-------------------------------------------------------------------------


Guitarra 1    x3 <----------
e)-----------------------------------------------------------------]
b)-----------------------------------------------------------------]
g)-14141414141414-14141414141414-12121212121212-11111111111111-----]
d)--x-x-x-x-x-x-x--x-x-x-x-x-x-x--x-x-x-x-x-x-x--x-x-x-x-x-x-x-----]
a)-12121212121212-12121212121212-10101010101010--9-9-9-9-9-9-9-----]
E)-----------------------------------------------------------------]
                 |              |              |              |

e)-----------------------------------------------------------------]
b)-----------------------------------------------------------------]
g)-9999999-9999999-5555555-5555555---------------------------------]
d)-xxxxxxx-xxxxxxx-xxxxxxx-xxxxxxx---------------------------------]
a)-7777777-7777777-3333333-2222222---------------------------------]
E)-----------------------------------------------------------------]
          |       |       |       |


Guitarra 2   x3  <--------
e)-----------------------------------------------------------------]
b)-----------------------------------------------------------------]
g)-----------------------------------------------------------------]
d)-7777777-7777777-5555555-5555555-2222222-2222222-0000000-0000000-]
a)-7777777-7777777-5555555-5555555-2222222-2222222-0000000-0000000-]
E)-5555555-5555555-3333333-3333333-0000000-0000000-XXXXXXX-XXXXXXX-]

-------------------------------------------------------------------------


e)-----------------------------------------------------------------]
b)---14----------14------------------------------------------------]
g)-----14~~--------14~~-----44-444444/99-999/777-7777--------------]x2<---
d)-12-------11-12-----------xx-xxxxxx/xx-xxx/xxx-xxxx--------------]
a)--------------------------22-222222/77-777/555-5555--------------]
E)-----------------------------------------------------------------]

e)--------------------------------------------------------------------]
b)--------------------------------------------------------------------]
g)-44-44-44-444455-55-55-555577-77-7777-77-7777-77-777----------------]
d)-44-44-44-444455-55-55-555577-77-7777-77-7777-77-777----------------]
a)-22-22-22-222233-33-33-333355-55-5555-55-5555-55-555----------------]
E)--------------------------------------------------------------------]
   || || ||     || || ||

e)---------------------------------------------------------------------]
b)---------------------------------------------------------------------]
g)-66-66-66-666677-77-77-777799-99-9999-99-9999-99-999-----------------]
d)-xx-xx-xx-xxxxxx-xx-xx-xxxxxx-xx-xxxx-xx-xxxx-xx-xxx-----------------]
a)-44-44-44-444455-55-55-555577-77-7777-77-7777-77-777-----------------]
E)---------------------------------------------------------------------]
   || || ||     || || ||


e)------------------------------------]
b)------------------------------------]
g)-9-99-7------7h6p7h6----------------]
d)-X-XX-X-----------------------------]
a)-7-77-5-----------------------------]
E)------------------------------------]


-------------------------------------------------------------------------


TODO X4 Sin distorsión


Guitarra 1

e)----------------------------------------------]
b)-15-15-15-15----------------------------------]
g)-----------12-11p12-11p12-11p12-14------------]
d)----------------------------------------------]
a)----------------------------------------------]
E)----------------------------------------------]

Guitarra 2
e)-----------------------------------------------------]
b)-----------------------------------------------------]
g)----------------------17p16-17p16-17p16--------------]
d)-17-17-17-17-16-14-16--------------------------------]
a)-----------------------------------------------------]
E)-----------------------------------------------------]


Guitarra 1

e)----------------------------------------------]
b)-15-15-15-15----------------------------------]
g)-----------12-11p12-11p12-11p12-14------------]
d)----------------------------------------------]
a)----------------------------------------------]
E)----------------------------------------------]


Guitarra 2
e)-----------------------------------------------]
b)-----------------------------------------------]
g)-----------------------------------------------]
d)-17-17-17-17-16-14-16--------------------------]
a)----------------------19p17-17p15-15p14h15p14--]
E)-----------------------------------------------]

ñas anteriores se tocan al mismo tiempo (escuchen la cancion )
 y al final esto
Guitarra 1
e)------------------------------------------------]
b)------------------------------------------------]
g)------------------------------------------------]
d)-12-12h14-12------------------------------------]
a)-------------15p14-14h15-17---------------------]
E)------------------------------------------------]


-------------------------------------------------------------------------
Con distorcion (lo puse todo junto para que se ubiquen en donde van)

Guitarra 1

e)----------------------------------------------]
b)-15-15-15-15----------------------------------]
g)-----------12-11p12-11p12-11p12-14------------]
d)----------------------------------------------]
a)----------------------------------------------]
E)----------------------------------------------]

e)----------------------------------------------------------------------]
b)-15-15-15-15----------------------------------------------------------]
g)-----------12-11p12-11p12-11p12-14-14h16-1616-16161616p14-1414-15h17--]
d)----------------------------------------------------------------------]
a)----------------------------------------------------------------------]
E)----------------------------------------------------------------------]


e)---------------------------------------------------------------]
b)---------------------------------------------------------------]
g)-171717161616-17h19-191919-171716-17p16-17p16------------------]
d)---------------------------------------------------------------]
a)---------------------------------------------------------------]
E)---------------------------------------------------------------]

e)----------------------------------------------]
b)-15-15-15-15----------------------------------]
g)-----------12-11p12-11p12-11p12-14------------]
d)----------------------------------------------]
a)----------------------------------------------]
E)----------------------------------------------]

e)----------------------------------------------]
b)-15-15-15-15----------------------------------]
g)-----------12-11p12-11p12-11p12-14------------]
d)----------------------------------------------]
a)----------------------------------------------]
E)----------------------------------------------]

e)---------------------------------171717171514h1514h1514h15-14---]
b)-19191919-151515-20202020-151515--------------------------------]
g)----------------------------------------------------------------]
d)----------------------------------------------------------------]
a)----------------------------------------------------------------]
E)----------------------------------------------------------------]

e)----------------------------------------------]
b)-15-15-15-15----------------------------------]
g)-----------12-11p12-11p12-11p12-14------------]
d)----------------------------------------------]
a)----------------------------------------------]
E)----------------------------------------------]


e)----------------------------------------------------------------------]
b)-15-15-15-15----------------------------------------------------------]
g)-----------12-11p12-11p12-11p12-14-14h16-1616-16161616p14-1414-15h17--]
d)----------------------------------------------------------------------]
a)----------------------------------------------------------------------]
E)----------------------------------------------------------------------]


e)---------------------------------------------------------------]
b)---------------------------------------------------------------]
g)-171717161616-17h19-191919-171716-17p16-17p16------------------]
d)---------------------------------------------------------------]
a)---------------------------------------------------------------]
E)---------------------------------------------------------------]


Guitarra2

e)---------------------------------------------------]
b)---------------------------------------------------]
g)---------------------------------------------------]
d)9999999999999-9/7/9/10101010101010101010101010101--]
a)9999999999999-9/7/9/101010101010101010101010101010-]
E)7777777777777-7/5/7/-8-8-8-8-8-8-8-8-8-8-8-8-8-8-8-]                 x3

e)---------------------------------------------------------------]
b)---------------------------------------------------------------]
g)---------------------------------------------------------------]
d)10/12/10-5555555555554444444444444444--------------------------]
a)10/12/10-5555555555554444444444444444--------------------------]
E)-8/10/-8-3333333333332222222222222222--------------------------]


-------------------------------------------------------------------------


Guitarra 1
e)14--14--14--14--14--14--14--14--14--14--14--14--14--14--14--14-------]
b)--15--15--15--15--15--15--15--15--15--15--15--15--15--15--15--15~~~--]
g)---------------------------------------------------------------------]
d)---------------------------------------------------------------------]
a)---------------------------------------------------------------------]
E)---------------------------------------------------------------------]


Guitarra 2

e)---------------------------------------------------------------------]
b)---------------------------------------------------------------------]
g)---------------999---------111111---------121212---------141414------]
d)-11///---------999---------111111---------121212---------141414-xxx--]
a)-11///---------777---------9-9-9----------101010---------121212-xxx--]
E)-9-///-0000000-----0000000--------0000000--------0000000--------xxx--]
         *******     *******        *******        *******
Suggest correction
Give kudos to tab author, rate the tab!
1 2 3 4 5
comments
print report bad tab
guest
You may want to rate the tab now too:
select rating
Wanna post a correction for this tab? Suggest correction