Oops, an error
Loading. Please wait.

Te Quiero Aquí Tab

version 1
version 1

Whole song

Interactive

60 views 1 this week
no commentswrite comment
1 2 3 4 5
3 more votes to show rating
add to favorites
launch autoscroll
font size
0
reset
how to read this tab
guitar tuner
×
Best way to learn
"Te Quiero Aquí"
Autoscroll
slow
fast
+/-
esc
set tempo
stop
...


hey k onda aki les djo una rola k a mi en lo personal m enkanta
bno io la oigo mjor asi
ahi chekenla uds y pss kalenla
va kn capo al 1
y pss bno ahi les va...


*INTRO*

e -|---0-----|---0-----|---0-----|---0---------|---0-----|---0---------|-
B -|-------2-|-------2-|-------2-|-------2-----|-------2-|-------2---2-|-
G -|-----3---|-----3---|-----2---|-----2-----2-|-----3---|-----3---3---|-
D -|-0-------|-0-------|---------|-------------|---------|-------------|-
A -|---------|---------|---------|-------------|---------|-------------|-
E -|---------|---------|-2-------|-2-------2---|-3-------|-3-----------|-

-|---0-----|---0---------|---0-----|---0---------|---0-----|---0---------
-|-------2-|-------2---2-|-------2-|-------2---2-|-------2-|-------2---2-
-|-----3---|-----3---3---|-----2---|-----2-------|-----3---|-----3---3---
-|-0-------|-0-----------|---------|-------------|---------|-------------
-|---------|-------------|---------|-------------|---------|-------------
-|---------|-------------|-2-------|-2-------2---|-3-------|-3-----------


             Bm
Ya nada es igual
                      A
desde que llegaste a mí
                 G
a mi vida no le falta nada
              Bm
es como un sueño
               A
contigo soy feliz
                   G
me siento como un niño

con un beso tuyo.


A
Otra vez (otra vez)
       F#m
bésame otra vez
     G
síenteme
              A
enséñame a vivir.


A
Otra vez (otra vez)
       F#m
dímelo otra vez
            G
'te quiero aquí'
            A
soy todo tuyo...


A - F#m - D - G - A - F#m - D - G

             Bm
Ya nada es igual
                     A
cuando te fuiste de mí
                G                     Bm
me ves llorando otro año en tu recuerdo
                      A
y el día siempre es gris
                 G
ya no me dejas reir como antes

ya no siento.


A
Otro más (otro más)
          F#m
dame otro día más
     G
quédate
             A
no te vayas más.


A
Mírame (mírame)
         F#m
volví a caer por ti
           G
te quiero aquí
            A
soy todo tuyo...


A - F#m - G - A - F#m - G

   A
Quiéreme
            F#m                G
vuelve a quererme como antes, sí

ya no te vayas.


   A
Quiéreme
            F#m                G
vuelve a quererme como antes, sí

ya no te vayas.


   A
Quiéreme
            F#m                G
vuelve a quererme como antes, sí

ya no te vayas.


   A
Quiéreme
            F#m                D
vuelve a quererme como antes, sí...


*acordes*
     Bm  A   G  F#m  D
e -|-0-|-0-|-0-|-0-|-0-|-
B -|-3-|-0-|-3-|-2-|-3-|-
G -|-4-|-2-|-0-|-2-|-2-|-
D -|-4-|-2-|-0-|-0-|-0-|-
A -|-2-|-0-|-×-|-×-|-×-|-
E -|-×-|-×-|-3-|-2-|-×-|-


dudas, komentarios, korrexiones o aklaraciones
a jorge_jag1@
saludos
bai ×Ð
...
Suggest correction
Give kudos to tab author, rate the tab!
1 2 3 4 5
comments
print report bad tab
guest
You may want to rate the tab now too:
select rating
Wanna post a correction for this tab? Suggest correction