Oops, an error
Loading. Please wait.

Te Quiero Aquí Tab

version 2
version 2

Whole song

Interactive

36 views 1 this week
no commentswrite comment
1 2 3 4 5
3 more votes to show rating
add to favorites
launch autoscroll
font size
0
reset
how to read this tab
guitar tuner
×
Best way to learn
"Te Quiero Aquí"
Autoscroll
slow
fast
+/-
esc
set tempo
stop
Yeah!! Brothers... sta rola sta bn llegadora y como estoy
pensando en ELLA stoy un tanto inspirado.
Arriba INSITE!! Atte Josec R.C. y Palapita Corp.!!
Si encuentran algun error o correccion escribanme...
Esta rola va dedicada pa el Pipe de Nota Suicida
y a Chemo de The Drunks... Yeah!!
Afinación: NORMAL (eBGDAE) O si estan en Bemol bajen 2 tonos

INTRO

e|------------------------------------------------------------|
B|---6----------6----------6----------6----------------6------|
G|---------8---------8----------7----------7-----7-----------8|
D|------8---------8----------8----------8-----------------8---|
A|-6----------6-----------------------------------------------|
E|----------------------6----------6----------6-----8---------|

e|------------------|
B|-----6------------|
G|-----------8-----8|
D|--------8---------|
A|------------------|
E|--8-----------8---|


Aqui se Repite el INTRO nadamas le agregamos 2-3 cositas nada imp.

e|-----------------------------------------------------------------|
B|---6----------6---------------6----------6----------------6------|
G|---------8---------8-----8---------7----------7-----7-----------8|
D|------8---------8---------------8----------8-----------------8---|
A|-6----------6---------6------------------------------------------|
E|---------------------------6----------6----------6-----8---------|

e|------------------|
B|-----6------------|
G|-----------8-----8|
D|--------8---------|
A|------------------|
E|--8-----------8---|

Jajaja Brothers jaja no se como se llaman los acordes pero son
los sig. Les pondremos asi...

ACORDES

     J      O      C

E  --6--  --6--  -----
B  --6--  --6--  --6--
G  --8--  --7--  --8--
D  --8--  --8--  --8--
A  --6--  --6--  --*--
E  --*--  --6--  --8--


Venga la Rola sta facil hay nomas hay q practicar...

Ya nada es igual
desde que llegaste a mi
mi vida no le falta nada   TODO ESTO VA ARPEJEADO
es como un sueño
contigo soy feliz
me siento como un niño
con un beso tuyo.

Aqui Empieza El Rasgueo Escuchen Bn El Ritmo Sta Facil!!

J
Otra vez
         O
bésame otra vez
              C
siénteme
enseñame a vivir.

J
Otra vez
         O
dímelo otra vez
              C
te quiero aquí
soy todo tuyo.

*Ajusten los acordes x q me da weba, Pero hay les dejo la letra*

Ya nada es igual
cuando te fuiste de mi
me ves llorando otro año en tu recuerdo
y el dia siempre es gris
ya no me dejas reir como antes
ya no siento.

Otro mas
dame otro dia mas
quedate
no te vayas.

Mirame
voy a caer por ti
te quiero aqui
soy todo tuyo.

Quiereme
vuelve a quererme como antes
si, ya no te vayas
Quiereme
vuelve a quererme como antes
si, ya no te vayas
Quiereme
vuelve a quererme como antes
si, ya no te vayas

Quiereme
vuelve a quererme como antes
SI...

PD: NECESITO ALGO DE AYUDA PA SACAR LA DE ROJO AZUL PERO BN,
NO COMO LOS MALOS TABS Q HAY Y LA DE CIELOS Q LLORARN ME FALTA
UN POQUITO, SI ALGUIEN GUSTA AYUDARME SHIDOOOO!!
falkon36@
Suggest correction
Give kudos to tab author, rate the tab!
1 2 3 4 5
comments
print report bad tab
guest
You may want to rate the tab now too:
select rating
Wanna post a correction for this tab? Suggest correction