Oops, an error
Loading. Please wait.

Un Día Más Sin Ti Bass Tab

version 1
version 1

Whole song

Interactive

35 views 1 this week
no commentswrite comment
1 2 3 4 5
3 more votes to show rating
add to favorites
launch autoscroll
font size
0
reset
guitar tuner
×
Best way to learn
"Un Día Más Sin Ti"
Autoscroll
slow
fast
+/-
esc
set tempo
stop
pues aqui la version del disco "Otra historia"
Recuerden afinar su bajo en D

G|--------|
D|--------|
A|--17/2--|
D|--------|

G|--------------------------------------|
D|--------------------------------------|
A|--22222222-33333333-------------------|
D|--------------------5555555555555555--| x2

G|--------------------------------------|
D|--------------------------------------|
A|--77777777-55555555-3333333333333333--| x2
D|--------------------------------------|

Coro:
G|---------------------------------------|
D|---------------------------------------|
A|--------------------22222222-33333333--| x2
D|--55555555-22222222--------------------|

G|----------------------------------------------------------|
D|---------------------7-5------7-5-4h5---------------------|
A|--777777777777-555555---555555--------333333333333--------|
D|----------------------------------------------------------|
 |                                                          |
G|----------------------------------------------------------|
D|----------------------------------777777-5545-------------|
A|--777777777777-9710791097-55555555------------3333333333--|
D|----------------------------------------------------------|

G|----------------------------------|
D|----------------------------------|
A|--7~------------5~------------3~--|
D|----------------------------------|

G|----------------------------------------------------|
D|----------------------------------------------------|
A|--777777777777-555555555555-3333333333333333333333--|
D|----------------------------------------------------|

G|-----------------------------|
D|-----------------------------|
A|-22222222222222222222222222--|
D|-----------------------------|

Coro
G|----------------------------------------------|
D|----------------------------------------------|
A|--------------------22222222-33333333---------|
D|--55555555-22222222---------------------------|
 |                                              |
G|----------------------------------------------|
D|----------------------------------------------|
A|--------------------2/10----------------------|
D|--55555555-22222222------99999999-1010101010--|
 |                                              |
G|----------------------------------------------|
D|----------------------------------------------|
A|------------------------22222222----33333333--|
D|--55555555---22222222-------------------------|
 |                                              |
G|----------------------------------------------|
D|----------------------------------------------|
A|------------------------22222222----33333333--|
D|--55555555---22222222-------------------------|

Outro
G|----------------------------------------------|
D|----------------------------------------------|
A|------------------------2~-----------3~-------|
D|--5~----------2~------------------------------|

G|------|
D|------|
A|--5~--|
D|------|
Suggest correction
Give kudos to tab author, rate the tab!
1 2 3 4 5
comments
print report bad tab
guest
You may want to rate the tab now too:
select rating
Wanna post a correction for this tab? Suggest correction