Oops, an error
Loading. Please wait.

Atrapado En Las Telarañas De Tu Ternura Tab

70 views 1 this week
no commentswrite comment
1 2 3 4 5
3 more votes to show rating
add to favorites
launch autoscroll
font size
0
reset
how to read this tab
guitar tuner
×
Best way to learn
"Atrapado En Las Telarañas De Tu Ternura"
Autoscroll
slow
fast
+/-
esc
set tempo
stop
Esta Canción se la dedico a mi Esposa Vania
porque a pesar de todos estos años sigo:
¡¡Atrapado en las telarañas de su ternura...TE AMO MI VIDA!!


Intro  LA#m  SOL#


e----------------------------------------------
B----------------------------------------------
G------6---6-8-6---6-8-6---6-8-6---6-8-8\10-8--
D--------8-------8-------8-------8----------(8)
A----------------------------------------------
E----------------------------------------------

e------------------------------------------------1-1
B------------------------------------------------2-2
G------6---6-8-6---6-8-6---6-8-6---6-8-8\10-8-5--3-3
D--------8-------8-------8-------8---------------3-3
A---------------------------------------------------
E---------------------------------------------------

LA#m          SOL#    x 2


LA#m
En las noches yo me siento
SOL#
completamente solo
LA#m
solamente yo me siento
SOL#
no quiero sentir vacío


LA#m
En las noches yo me siento
SOL#
entre todas tus cosas
LA#m
para ver si algún día
SOL#
las mueves y me encuentras


RE#m                             LA#m DO  LA#m  DO

e---------------------------------4---6----4----6--
B----------------------------------4---4----4----4-
G------6\8-6---888-6-8-6---888-6----5---5----5----5
D------6\8---8-------8---8-------------------------
A--------------------------------------------------
E--------------------------------------------------

e---------------------------------4---6----4----6--
B----------------------------------4---4----4----4-
G------6\8-6---888-6-8-6---888-6----5---5----5----5
D------6\8---8-------8---8-------------------------
A--------------------------------------------------
E--------------------------------------------------

e---------------------------------4---6----4----6--
B----------------------------------4---4----4----4-
G------6\8-6---888-6-8-6---888-6----5---5----5----5
D------6\8---8-------8---8-------------------------
A--------------------------------------------------
E--------------------------------------------------


LA#m     SOL#      LA#m      SOL#
Aqui recomiendo hacer una improvisación en la escala de LA#m tipo Funk....


LA#m
En las noches yo me siento
SOL#
en la esquina de tu cama
LA#m
para ver si algun día
SOL#
tu volteas y me encuentras
LA#m
En las noches aveces pienso
SOL#
que tu cuerpo está en el techo
LA#m
que está cayendo poco a poco
SOL#
y por eso no me duermo

        LA#m                            SOL#
e---------------------------------------------------
B---------------------------------------------------
G------6---6-8-6---6-8-6---6-8-6---6-8-8\10-8-------
D--------8-------8-------8-------8----------(8)-b888
A---------------------------------------------------
E---------------------------------------------------

e------------------------------------------------1-1
B------------------------------------------------2-2
G------6---6-8-6---6-8-6---6-8-6---6-8-8\10-8-5--3-3
D--------8-------8-------8-------8---------------3-3
A---------------------------------------------------
E---------------------------------------------------


LA#m
En las noches aveces pienso
SOL#
que tu cuerpo está en el techo
LA#m
que está cayendo poco a poco
SOL#
y por eso no me duermo
LA#m
En las noches yo me siento
SOL#
completamente solo
LA#m
solamente yo me siento
SOL#
no quiero sentir vacío

RE#m                             LA#m DO  LA#m  DO

e---------------------------------4---6----4----6--
B----------------------------------4---4----4----4-
G------6\8-6---888-6-8-6---888-6----5---5----5----5
D------6\8---8-------8---8-------------------------
A--------------------------------------------------
E--------------------------------------------------

Atrapado en las teñarañas de tu ternura(x4)

Un saludo para Zinacatepec Puebla, y para mis Brothers
de la banda de rock H1N1!!!!
Suggest correction
Give kudos to tab author, rate the tab!
1 2 3 4 5
comments
print report bad tab
guest
You may want to rate the tab now too:
select rating
Wanna post a correction for this tab? Suggest correction