Oops, an error
Loading. Please wait.

Envísteme De Poder Tab

53 views 1 this week
no commentswrite comment
1 2 3 4 5
3 more votes to show rating
add to favorites
launch autoscroll
font size
0
reset
how to read this tab
guitar tuner
Autoscroll
slow
fast
+/-
esc
set tempo
stop
Help us to improve Ultimate-Guitar.com Take our survey!
×
introduccion en bajo:

----------------------------------------------------------
--7---5---3---7---5---7---3----------9--------------------
------------------------------10-9-7---7-9-10-7-9---------
----------------------------------------------------------
----------------------------------------------------------
----------------------------------------------------------


-----------------------------------------------------------
--------9--------------------------------------------------
-10-9-7---7-9-10-12-14-15-14-12-14-------------------------
-----------------------------------------------------------
-----------------------------------------------------------
-----------------------------------------------------------

            Am                           F
su santo espititu a llegado, oh dulce espiritu de Dios
            Am                           F
su santo espiritu a llegado, oh dulce espiritu de Dios;
        Dm      F       E
//derramando aceite de santa uncion//(se repite dos veces)
        F       Dm      E (en LA segunda repeticion)


      Am                         F
//Envisteme de poder, oh dulce espiritu de Dios,//
    Dm G      Am
de Dios, de DIOS  (se repite dos veces)

---------------------------------------------------
---------------------------------------------------
-10-9-7--------------------------------------------
--------9------------------------------------------
---------------------------------------------------
---------------------------------------------------

//Envisteme.....
     Am                F
Regocigese su pueblo, alabenle sus santos,
    G                        F      G       Am
reverencieles sus escojidos, adorenle sus amados

//Envisteme...
         Am                                    F
//Mi corazon se regozija en el Señor, mi fortaleza en el Señor
               G                                   Am       Am G F
se exalta, mi boca cantara sin temor ante mis adversarios//

     F        G        Am     G     Am Am G F
Por tanto me regocijo, en mi salvacion,     dire que no hay
G             Am  B C B Am G F
Dios como mi DIOS
      F      G         Am     G     Am Am G F
por tanto me regocijo, en mi salvacion,     dire que no hay
 G              Am
santo como el Señor

           Am                          F
///No hay santo como el Señor, no hay santo como el Señor,
        G                           Am
no hay santo como el Señor, nuestro Dios///
Suggest correction
Give kudos to tab author, rate the tab!
1 2 3 4 5
comments
print report bad tab
guest
You may want to rate the tab now too:
select rating
Wanna post a correction for this tab? Suggest correction