Oops, an error
Loading. Please wait.

Tu Presencia Señor Tab

73 views 1 this week
no commentswrite comment
1 2 3 4 5
3 more votes to show rating
add to favorites
launch autoscroll
font size
0
reset
how to read this tab
guitar tuner
Autoscroll
slow
fast
+/-
esc
set tempo
stop
HOLA AQUI LES DEJO  ESTA HERMOSA CANCION que tube que correguir
por unos errores de dedo pero esta es la buena
 SOLO QUE ESCUCHEN
BIEN LA CANCION PAREQUE LEDEN EL TIEMPO NECESARIO

e----------3-----------------------------
B--------3---3---------------------------
G------0-------0------------------------- ( X 4 )
D----------------------------------------
A----------------------------------------
E---3------------------------------------

e----------0---------------0--------------
B--------3---3-----------3---3------------
G------0-------0-------0-------0----------
D-----------------------------------------
A---2----------------3--------------------
E-----------------------------------------


e-----------0-----------0-----------------
B---------3----------3--------------------
G--------0---------0----------------------
D-----------------------------------------
A-----3-----------------------------------
E---------------3-------------------------


e-----------0--------------------0--------
B---------1---1----------------3--3-------
G-------2-------2------------4------4-----
D-----------------------------------------
A---0--------------0----------------------
E-----------------------------------------


e----------0------------2--------3--------
B--------0------------3---3---------3-----
G------0------------2-------2---------2---
D-------------0---------------------------
A-----------------------------------------
E--0--------------------------------------


AQUI EMPIESE LA CANCION


      G
Tu presencia
e----------3-----------------------------
B--------3---3---------------------------
G------0-------0-------------------------
D----------------------------------------
A----------------------------------------
E---3------------------------------------


   Bm7              C
 Señor me          llena,

e----------0---------------0--------------
B--------3---3-----------3---3------------
G------0-------0-------0-------0----------
D-----------------------------------------
A---2----------------3--------------------
E-----------------------------------------


e-----------0-----------0-----------------
B---------3----3------3----3--------------
G-------0-----------0--------0------------
D-----------------------------------------
A----3------------------------------------
E----------------3------------------------


      Am7            D
 Tu presencia      Señor
e----------0----------------0--------------
B--------1----1-----------3---3------------
G------2--------2-------4-------4----------
D------------------------------------------
A---0--------------0-----------------------
E------------------------------------------


     Em
 me bendice
e----------0------------2--------3--------
B--------0------------3---3---------3-----
G------0------------2-------2---------2---
D-------------0---------------------------
A-----------------------------------------
E--0--------------------------------------


      G
Tu presencia
e----------3-----------------------------
B--------3---3---------------------------
G------0-------0-------------------------
D----------------------------------------
A----------------------------------------
E---3------------------------------------


   Bm7              C
 Señor    me       protege
e----------0---------------0--------------
B--------3---3-----------3---3------------
G------0-------0-------0-------0----------
D-----------------------------------------
A---2----------------3--------------------
E-----------------------------------------


e-----------0-----------0-----------------
B---------3----3------3----3--------------
G-------0-----------0--------0------------
D-----------------------------------------
A----3------------------------------------
E------------------3----------------------


      Am7            D
 Tu presencia      Señor
e-----------0---------------0---------------
B---------1---1-----------3----3------------
G-------2-------2-------4--------4----------
D-----------------------------------------
A---0--------------0----------------------
E-----------------------------------------


  Em           G
 esta          aquí   F     G
e----------0-----3----1-----3-----------
B--------0-------3----1-----3-----------
G------0--------------2-----4-----------
D---------------------3-----5-----------
A----------------2----3-----5-----------
E--0-------------3----1-----3-----------


      C          D/C       G D/F# Em7
Pues solo en Tu presencia jamás temeré
 C           D/C   Bm7          Dm   G/B
Solo en Tu presencia ahi me esconderé---e
 C        D/C    Bm7      B7   Em
aun estando solo o en cualquier lugar
        Am7      D         G
En Tu presencia seguro yo estaré


ESPERO QUE LE SIRBA CUALQUIER DUDA ME PUEDEN ESCRIVIR
O PEDIR CUALQUIER CANCION LES DEJO MI MAIL ES vago_pech@
saludos para la iglesia el samaritano que esta en la pensil D.F,
y a la iglesia natha de paseo de sanjuan zumpando edo. mex, adios
Suggest correction
Give kudos to tab author, rate the tab!
1 2 3 4 5
comments
print report bad tab
guest
You may want to rate the tab now too:
select rating
Wanna post a correction for this tab? Suggest correction