Oops, an error
Loading. Please wait.

Tu Rio Fluirá Tab

25 views 1 this week
no commentswrite comment
1 2 3 4 5
3 more votes to show rating
add to favorites
×
Save as Personal and add changes to this tab that will be seen only by you. Learn more ›
×
You can save this tab as Personal to edit and correct it or add notes. All changes will be seen only by you. Learn more »
save as personal
new!
launch autoscroll
font size
0
reset
how to read this tab
guitar tuner
Autoscroll
slow
fast
+/-
esc
set tempo
stop
este es el intro k aparece en el principio
ES EN E PIANO PERO SE ESCUCHA TAMBIEN BIEN
EN LA GUITARRA

                  (X1)
E--------------------------------
B-----12--10----10---------------
G------------12----12------------
D--12----------------------------

                (X1)
E--------------------------------
B-----12--10----10---------------
G------------12----12------------
D--12-------------------14-------


E------------------------------
B-----13-12-10-12-13------------
G--------------------------------
D--14---------------------------

E------------------------------
B-13-13--12-10-----------------
G---------------12--12/14------
D------------------------------

G
Hay un rio de vida que esta fluyendo
                 C
de tu trono oh Dios
G                                     C
llevando vida llevando paz a cada nacion
  Am                     Em
Con gran poder con gran virtud
       D
fluye hoy
Am                          C
derrama tu gloria sobre nosotros
D
oh Señor


           G
Tu rio fluira
              Em
nadie lo detendra
                   C
con gloria y con poder
Am              D
tu gloria se vera
            G
en cada nacion


G
De toda lengua de todo linaje
              C
y de toda nacion
G                                   C
tu rio fluye llevando vida y bendicion


Am                     Em
Con gran poder con gran virtud
       D
fluye hoy
Am                          C
derrama tu gloria sobre nosotros
D
oh Señor

(coro)


espero k les guste,la mejore un poco
y veran k esta version esta
correcta, saludos a los hermanos
de dios de la Profecia, del joven hermano
hector saludos ami novia que la quiero mucho
dios les bendiga.
Suggest correction
Give kudos to tab author, rate the tab!
1 2 3 4 5
comments
print report bad tab
guest
Wanna post a correction for this tab? Suggest correction