Oops, an error
Loading. Please wait.

Una Aventura Más Tab

17 views 1 this week
no commentswrite comment
1 2 3 4 5
3 more votes to show rating
add to favorites
launch autoscroll
font size
0
reset
how to read this tab
guitar tuner
×
Best way to learn
"Una Aventura Más"
Autoscroll
slow
fast
+/-
esc
set tempo
stop
Intro:

        Em           C               D           Bm          Em
e|----------------------------------------------------------------------
b|--5-7-8-----8-8-7-5-7-8-----8-8-7-5-5-7--7-7-5-3-5-7--7-7-10-12-8-7-5-
G|-4-----4-4-------------5-5--------------------------------------------
D|----------------------------------------------------------------------
A|----------------------------------------------------------------------
E|----------------------------------------------------------------------

REPETIR INTRO

    D
e|-----
b|--3--
G|-----
D|-----
A|-----
E|-----

           G                 D
Me siento triste hoy tengo ganas de llorar
           C       D
al recordarte te busco y tu no estas
           G           D
cuando te fuistes hasta me quise matar
           C         D
tu me ignorastes,es lo que me dolio mas.

    Em                   C
Yo no se lo que paso,una ventura no lo se
          D                  Bm
te burlastes de mi amor,me arrancastes la vida.
    Em                       C
Pues soy un tonto que sufri,a veces llora por amor
          D                  Bm
como un niño sin madre,cuando no tiene un juguete.

     C         D            Bm
Y ya no estas donde estaras te fuistes
      C
solo fui.......


 Em                          C
Una aventura mas,una aventura mas
      D
unaa aventura del amor
      Bm
una aventura con dolor
                  Em
ya no soy nada sin ti

Em                          C
Una aventura mas,una aventura mas
     D
una aventura del ayer
     Bm
una aventura sin placer
                  Em
ya no soy nada sin ti.


        G                   D             C          D

e|---3-5/7-5-7---7-7-10-10-5-5-7-5--7-7-5-3/5-3--3-3-7-7-5-5-3-5-
b|--5------------------------------------------------------------
G|-4-------------------------------------------------------------
D|---------------------------------------------------------------
A|---------------------------------------------------------------
E|---------------------------------------------------------------

repetir todo


       Em              C             D             Bm
e|--0-2-3-2-0----0-2-3-2-0----2-3-5-3-2----2-3-7-5-7-5-7-5------
b|-0---------0--0---------1--1---------3--3---------------------
G|--------------------------------------------------------------
D|--------------------------------------------------------------
A|--------------------------------------------------------------
E|--------------------------------------------------------------


Em                          C
Una aventura mas,una aventura mas
      D
unaa aventura del amor
      Bm
una aventura con dolor
                  Em
ya no soy nada sin ti

Em                          C
Una aventura mas,una aventura mas
     D
una aventura del ayer
     Bm
una aventura sin placer
                  Em
ya no soy nada sin ti.

   Em              C             D             Bm
e|--0-2-3-2-0----0-2-3-2-0----2-3-5-3-2----2-3-7-5-7-5-7-5------
b|-0---------0--0---------1--1---------3--3---------------------
G|--------------------------------------------------------------
D|--------------------------------------------------------------
A|--------------------------------------------------------------
E|--------------------------------------------------------------

<p>
Suggest correction
Give kudos to tab author, rate the tab!
1 2 3 4 5
comments
print report bad tab
guest
You may want to rate the tab now too:
select rating
Wanna post a correction for this tab? Suggest correction