Oops, an error
Loading. Please wait.

Quién Te Cantará? Tab

126 views 3 this week
no commentswrite comment
1 2 3 4 5
3 more votes to show rating
add to favorites
launch autoscroll
font size
0
reset
how to read this tab
guitar tuner
×
Best way to learn
"Quién Te Cantará?"
Autoscroll
slow
fast
+/-
esc
set tempo
stop
Esta es una adaptación del solo de sax, 
pero con la lira, échale oido para que coincidan las
notas con cada acorde del acompañamiento de la rola
y pues se la dedico de todo corazón a Verónica L.O. de
Puebla Pue. Te quiero con todo el corazón...

dudas y comentarios a: arockdriguez@

x^y = Bending de 'x' hasta alcanzar la nota en 'y'
h = hammer on
p = pull off

-------------------------------------------------------
-12h13p12--12h13p12--12-15-12h13p12--12h13p12--12-15^17
---------14--------14--------------14--------14--------
-------------------------------------------------------
-------------------------------------------------------
-------------------------------------------------------

-------------------------------------------------------
-12h13p12--12h13p12--12--12-15-15^17-15^17-15----------
---------14--------14--14------------------------------
-------------------------------------------------------
-------------------------------------------------------
-------------------------------------------------------

aquí se oye bien un tapping

12h17p12h13p-12h17p12h13p-12h17p12h13p-12h17p12h13p-(*)
----------------------------------------------------
----------------------------------------------------
----------------------------------------------------
----------------------------------------------------
----------------------------------------------------

(*=4 veces la parte del tapping)

----------------------------------------------------
-13-15--13-12h13p12h13p12h15p12h13p12h13p12---------
-------------------------------------------14-12-14-
----------------------------------------------------
----------------------------------------------------
----------------------------------------------------

(y por últimos unos ligados)

-----------------------------------------------
-----------12h13p12------------------12h13p12--
------12h14--------14p12--------12h14--------14
-12h14------------------14p12h14---------------
-----------------------------------------------
-----------------------------------------------

------------------------------------------------------
12h13p12h15p12h13p12--12-13-12-13-15-15^17-15^17-15^17
--------------------14--------------------------------
------------------------------------------------------
------------------------------------------------------
------------------------------------------------------
Suggest correction
Give kudos to tab author, rate the tab!
1 2 3 4 5
comments
print report bad tab
guest
You may want to rate the tab now too:
select rating
Wanna post a correction for this tab? Suggest correction