Oops, an error
Loading. Please wait.

Quisiera Escapar De Tí Chords

1 view 1 this week
no commentswrite comment
1 2 3 4 5
3 more votes to show rating
add to favorites
launch autoscroll
font size
0
reset
transpose
0
reset
display chords
guitar tuner
Autoscroll
slow
fast
+/-
esc
set tempo
stop
Help us to improve Ultimate-Guitar.com Take our survey!
×
Un Saludo a toda La banda Rockera!!!!!

Esta Rola No es muy conocida entre nosotros solo la sacaron
en un disco grabado de una party en una noche bohemia muy sabrosona
con todos los cuates como nosotros lo hemos estado.

Esta Rola Va mu Dedicada a Todos los amores que nos dejan Una
Espinita en el corazon y nos cuesta mucho sacarla (a quien no le a pasado)

En fin... quiero dedicarsela a todas las chavas que lean esta rola
para que se la aprendan Chido para que vean que es lo que sentimos nosotros
en esas situaciones...

!!!!sI QUIEREN ESCUCHAR ESA ROLA AGREGENME MI MAIL
ES betorams@ PORQUE NO LA ENCUENTRAN NI EN BUSCADORES DE MUSICA
ESA ROLA ES INEDITA DE ESTOS WEYES !!!

aki va..


INTRO

e|--7----7-----10-----8------7--------5---5-----9-----7-----5--|
B|----8----8-8----8-8---8--8------------7---7-7---7-7---7-7----|
G|-------------------------------------------------------------|
D|-------------------------------------------------------------|
A|-------------------------------------------------------------|
E|-------------------------------------------------------------|

e|--3---3-----7-----5-----3-----2---2-----3/5------------------|
B|----5---5-5---5-5---5-5---------3---3---5/7------------------|
G|-------------------------------------------------------------|
D|-------------------------------------------------------------|
A|-------------------------------------------------------------|
E|-------------------------------------------------------------|

Este Intro se Repite 2 veces

despues siguen con este Rasgueo


D,A,Bm,F#m,G,A

D                     A                                Bm
Quisiera escapar de ti, y no encuentro el lugar adecuado
D                          A            Bm              F#m A
Pero lo malo es que siempre estas en mi, Quisiera mejor morir
D                A                 Bm
Dejame ser Libre, dejame Tranquilo, dejame ya no me hagas sufrir
F#m,G,A
porfavor entiendeme
    D                                      A
Oh! Dios, Dime que puedo hacer para olvidar este Amor
    Bm                                   F#m     G,A
y no pensar mas en el porfavor entiendeme, que me esta haciendo
D,A,Bm,F#m,G,A
Sufrir, Sufrir, Sufrir...

D,A,Bm,F#m,G,A


         D                                 A
Oh! Dios, Dime que puedo hacer para olvidar este Amor
   Bm                                    F#m          G        A
y no pensar mas en el porfavor entiendeme, que me esta haciendo
D
Sufrir,
                        A
Yo se que aún nos Amamos,
Bm                                               F#m
Pero nos Dolera, Se que nos dolera decir un adios.


         D                                 A
Oh! Dios, Dime que puedo hacer para olvidar este Amor
   Bm                                    F#m          G        A
y no pensar mas en el porfavor entiendeme, que me esta haciendo
D
Sufrir,
                        A
Yo se que aún nos Amamos,
Bm                                               F#m
Pero nos Dolera, Se que nos dolera decir un adios.

G             A
Y al escuchar...


D,A,Bm,F#m,G,A (Todo este Rasgueo se repite con esta ultima Frase)


Esta Canción,

Esta Canción,

Esta Canción...
Suggest correction
Give kudos to tab author, rate the tab!
1 2 3 4 5
comments
print report bad tab
guest
You may want to rate the tab now too:
select rating
Wanna post a correction for this tab? Suggest correction