Oops, an error
Loading. Please wait.

Arriesgaré La Piel Chords

35 views 1 this week
no commentswrite comment
1 2 3 4 5
3 more votes to show rating
add to favorites
launch autoscroll
font size
0
reset
transpose
0
reset
simplify chords
display chords
guitar tuner
×
Best way to learn
"Arriesgaré La Piel"
Autoscroll
slow
fast
+/-
esc
set tempo
stop
INTRO:
                                      A4/7              A4/7/E          D
E||------------|--10--10--10--10-10-|----9------7----|----5-----------|-----------|
B||------------|--------------------|----------------|----------0-----|-----------|
G||---------11-|------11--11--11-11-|--9------7------|--6-----0----2/-|--7--------|
D||------------|--------------------|----------------|----------------|--7--------|
A||------------|--------------------|----------------|----------------|-----------|
E||------------|--------------------|----------------|----------------|-----------|

(A)sólo bajo                         A4/7           A4/7/E           D           D/A
------10--10-10----|--12----10-----|--9------7----|----5-----------|-----------|-----2--2-2/4-|
-------------------|---------------|--------------|----------0-----|-----------|---3----3-3/5-|
---11-----11-11-12-|--------11---9-|-------7------|--6-----0----2/-|--7--------|--------------|
-------------------|---------------|--------------|----------------|--7--------|--------------|
-------------------|---------------|--------------|----------------|-----------|--------------|
-------------------|---------------|--------------|----------------|-----------|--------------|

  E             F#            Bm            G                  D/A           A
----4--------|--6--4/-6-----|--7---------|--7----3-------1---|--2---------|--3-----------|
--5--------7-|-----5/-7-----|----------8-|-------5-----------|------------|--------0-----|
-------------|------------7-|------------|-------------1---2-|----------4-|------0----2/-|
-------------|--------------|------------|-------------------|------------|--------------|
-------------|--------------|------------|-------------------|------------|--------------|
-------------|--------------|------------|-------------------|------------|--------------|

  D
------------|------------||
---------7/-|--10--------||
--7---------|------------||
--7---------|------------||
------------|------------||
------------|------------||


   A4/7        A4/7/E      Dm   Dm/A
Quizás me fuera necesario anoche
          Gm          C      F    F/C
tomar la inútil decisión de verte,
  A           A/E           Dm   Dm/A
así sea en el centro de la noche,
 E7            A7           Dm   Dm/F
así sea en el centro de la muerte.
   A4/7      A4/7/E       Dm   Dm/A
Mi corazón es un caballo alado,
         Gm       C7        F    F/C
mi decisión es una espada amarga,
              A     A/E      Dm   Dm/A
yo volveré a buscar lo más amado,
            E7         A7         D
pese a la incertidumbre que me embarga.

               D D/A        A/E    A
Arriesgaré la piel por un encuentro
           G          A7    D    C
aunque paguemos caro los engaños
            B4/7-B7           Em    Em/G
porque la vida es un instante dentro
                 A               D    D/A
de la perdida inmensidad de este año.
              D-D/A        A/E  A
Año de espera y año sin memoria
            G          A7     D   C
que no quisiera prolongar en celo
            B4/7 B7              Em   Em/G
entre el cuchillo de tus dos historias
               A     A/E     D
y las heridas de mis dos desvelos.
Mi corazón es un caballo alado,
mi decisión es una espada amarga,
yo volveré a buscar lo más amado,
pese a la incertidumbre que me embarga.

Arriesgaré la piel por un encuentro
aunque paguemos caro los engaños
porque la vida es un instante dentro
de la perdida inmensidad de este año.
Año de espera y año sin memoria
que no quisiera prolongar en celo
entre el cuchillo de tus dos historias
y las heridas de mis dos desvelos.

/*Acordes Usados (de cuerda delgada a más gruesa)*/

A4/7    : 0|3|0|2|0|-
A4/7/E  : 0|2|0|2|-|0
D/A     : 2|3|2|-|0|-
B4/7    : 2|5|2|4|2|- 
B7      : 2|4|2|4|2|-
D/C     : 2|3|2|-|3|-
D/A     : 2|3|2|-|0|-
D/F     : 2|3|2|3|-|-
Em/G    : 0|0|0|2|2|3
Suggest correction
Give kudos to tab author, rate the tab!
1 2 3 4 5
comments
print report bad tab
guest
You may want to rate the tab now too:
select rating
Wanna post a correction for this tab? Suggest correction