Oops, an error
Loading. Please wait.

El Tinkú Bass

78 views 1 this week
no commentswrite comment
1 2 3 4 5
3 more votes to show rating
add to favorites
launch autoscroll
font size
0
reset
guitar tuner
×
Best way to learn
"El Tinkú"
Autoscroll
slow
fast
+/-
esc
set tempo
stop
el bajo entra con la percusion

     C           D7 C     E7   Am
G-----------|---------|----------|
D----5----5-|---7---5-|---9------|
A--3---3----|-55---3--|-7--------|
E-----------|---------|------5-5-|

G-----------|---------|----------|
D----5----5-|---7---5-|---9------|
A--3---3----|-55---3--|-7--------|
E-----------|---------|--------5-|


esta es la parte del solo del charango


G-----------|---------|----------|
D----5----5-|---7---5-|---9-----7|
A--3---3----|-5---3---|-7------7-|
E-----------|---------|-----5-8--|

G-----------|---------|----------|
D----5----5-|---7---5-|---9------|
A--3---3----|-5---3---|-7--------|
E-----------|---------|----5/////|
Suggest correction
Give kudos to tab author, rate the tab!
1 2 3 4 5
comments
print report bad tab
guest
You may want to rate the tab now too:
select rating
Wanna post a correction for this tab? Suggest correction