Oops, an error
Loading. Please wait.

Mañana Quizás Tab

10 views 1 this week
no commentswrite comment
1 2 3 4 5
3 more votes to show rating
add to favorites
launch autoscroll
font size
0
reset
how to read this tab
guitar tuner
×
Best way to learn
"Mañana Quizás"
Autoscroll
slow
fast
+/-
esc
set tempo
stop
PARTE I   (X 2)

E|----------------------------------0-------------------------------|
A|-------0-----0-----0-----------0-----0-----0--------------2-3-2---|
E|--2----------------------2--------------------------0-------------|2X
C|----------0-----2-----0-----------------2-----0-------------------|
G|-----0----------------------0--------------------------0----------|

E|----------------0--3--0-----0-------------------------------------|
A|-------------------------------------------2----------------------|
E|------0------------------------------------------0----------------|2X
C|---2--------2------------2--------2--0----------------------------|
G|---------0---------------------0--------0-----2-------------------|

E|---------------------------3-----0--------------------------------|
A|-------------------------------------------------2----------------|
E|------0-----------------------------------------------------------|2X
C|---0--------0--2--4--2--0-----2-----2--0--2--0--------------------|
G|---------0--------------------------------------------------------|


PARTE II


E|-----------|    E|-----------|    E|-----------|    E|-----------|
A|-----------|    A|-----------|    A|-----------|    A|-----------|
E|-----2-----|X4  E|-----0-----|X4  E|-----0-----|X4  E|-----0-----|X4
C|--0--------|    C|--2--------|    C|--4--------|    C|--2--------|
G|--------0--|    G|--------0--|    G|--------0--|    G|--------0--|

E|-----------|    E|-----------|    E|-----------|    E|-----------|
A|-----------|    A|-----------|    A|-----------|    A|-----------|
E|-----0-----|X4  E|-----2-----|X4  E|-----2-----|X2  E|-----0-----|X2
C|--1--------|    C|--1--------|    C|--0--------|    C|--0--------|
G|--------0--|    G|--------0--|    G|--------0--|    G|--------0--|

E|-----------|    E|-----------|    E|-----------|    E|-----------|
A|-----------|    A|-----------|    A|-----------|    A|-----------|
E|-----2-----|X4  E|-----0-----|X4  E|-----0-----|X4  E|-----0-----|X4
C|--0--------|    C|--2--------|    C|--4--------|    C|--2--------|
G|--------0--|    G|--------0--|    G|--------0--|    G|--------0--|

E|-----------|    E|-----------|    E|-----------|    E|-----------|
A|-----------|    A|-----------|    A|-----------|    A|-----------|
E|-----0-----|X4  E|-----2-----|X4  E|-----2-----|X2  E|-----0-----|X2
C|--1--------|    C|--1--------|    C|--0--------|    C|--0--------|
G|--------0--|    G|--------0--|    G|--------0--|    G|--------0--|


E|--0-----|
A|--0-----|
E|--2-----|
C|--0-----|
G|--0-----|


PARTE III


LO MISMO QUE PARTE I


PARTE IIII

TRANSICION A Q'UAPAC CHUNCHO

E|--------------------------------------0---------------|
A|-----------0-----0-----0-----------0-----0-----0------|
E|-----2-----------------------2------------------------|
C|--0-----------0-----2-----0-----------------2-----0---|
G|--------0-----------------------0---------------------|

OJALA DESPUES VOY A SACAR Q'UAPAC CHUNCHO PERO CON YA ES SUFICIENTO
Suggest correction
Give kudos to tab author, rate the tab!
1 2 3 4 5
comments
print report bad tab
guest
You may want to rate the tab now too:
select rating
Wanna post a correction for this tab? Suggest correction