Oops, an error
Loading. Please wait.

Simón Bolívar Tab

version 1
version 1

Whole song

81 views 1 this week
no commentswrite comment
1 2 3 4 5
3 more votes to show rating
add to favorites
launch autoscroll
font size
0
reset
how to read this tab
guitar tuner
×
Best way to learn
"Simón Bolívar"
Autoscroll
slow
fast
+/-
esc
set tempo
stop
SIMON BOLIVAR

Intro:

  (E)           A            B7           E
E|-------------------------------0-------------------
B|-----0-3-2-0---2-0----2-0-----2---4-2-0---0--------
G|---1----------2---2------2---3----------3----------
D|-2-------------------3------4----------------------
A|---------------------------------------------------
E|---------------------------------------------------

    A   E      B7          E
E|---------------------------------------------------
B|---2-----------------------------------------------
G|--2---2-1---1-4-1-----2--1--2----------------------
D|------------------4-4---------2--------------------
A|---------------------------------------------------
E|---------------------------------------------------

   E            A            B7           E
E|-------------------------------0-------------------
B|-----0-3-2-0---2-0----2-0-----2---4-2-0---0--------
G|---1----------2---2------2---3----------3----------
D|-2-------------------3------4----------------------
A|---------------------------------------------------
E|---------------------------------------------------

    A                    E                B7
E|-----9--------12--------7-------9---------5--------
B|---10-10----10--10----9--9-----9--9------5--5------
G|--9-----9--9------9--9----9--10----10---6----6-----
D|---------------------------------------------------
A|---------------------------------------------------
E|---------------------------------------------------

      E
E|---11---12----12-----12-----12-----12--------------
B|--12----12----12-----12-----12-----12--------------
G|-------13----13-----13-----13-----13---------------
D|---------------------------------------------------
A|---------------------------------------------------
E|---------------------------------------------------


E                 B7
Simón Bolívar, Simón,
                E
Caraqueño americano,
                B7
El suelo venezolano
                       E - E7
Le dio la fuerza a tu voz.
                  A  -  F#
Simón Bolívar, Simón,
                  B
Nació de tu Venezuela
       A               E
Y por todo el tiempo vuela
      B7         E  -  E7
Como candela tu voz,
                  A   -  F#
Como candela que va,
                     B
Señalando un rumbo cierto
      A           E
En este suelo cubierto
        B7           E
De muertos con dignidad.
Intro:

(E)             A            B7           E
E|--------------------------------0-------------
B|------0-3-2-0---2-0----2-0-----2---4-2-0--0---
G|---1-----------2---2------2---3----------3----
D|-2--------------------3------4----------------
A|----------------------------------------------
E|----------------------------------------------

    A     E      B7         E
E|----------------------------------------------
B|---2------------------------------------------
G|--2---2-1---1--4--1-----2-1-2-----------------
D|--------------------4-4--------2--------------
A|----------------------------------------------
E|----------------------------------------------

E                 B7
Simón Bolívar, Simón,
                   E
Revivido en las memorias
                            B7
Que abre otro tiempo la historia.
                       E - E7
Te espera el tiempo Simón
                  A  -  F#
Simón Bolívar, razón,
                     B
Razón del pueblo profunda,
       A           E
Antes que todo se hunda
      B7          E  -  E7
Vamos de nuevo Simón.
                  A   -  F#
Simón Bolívar, Simón,
                   B
En el sur la voz amiga,
       A             E (sin acordes)
Es la voz de José Artigas
                     E  -  B7  - E
Que también tenía razón.
Suggest correction
Give kudos to tab author, rate the tab!
1 2 3 4 5
comments
print report bad tab
guest
You may want to rate the tab now too:
select rating
Wanna post a correction for this tab? Suggest correction