Oops, an error
Loading. Please wait.

Tu No Te Irás Tab

67 views 1 this week
no commentswrite comment
1 2 3 4 5
3 more votes to show rating
add to favorites
launch autoscroll
font size
0
reset
how to read this tab
guitar tuner
×
Best way to learn
"Tu No Te Irás"
Autoscroll
slow
fast
+/-
esc
set tempo
stop
Tu no te irás
Inti-Illimani
Cajón
Se debe hacer presión con la muñeca derecha en el puente inferior de
la guitarra para dar el efecto al punteo.
Intro GUITARRA 2: A - G# - Gm - A - D7 Gm
Preludio
Punteo Guitarra 1                                            Acompaña
                                                          A (Guitarra 2)
|---------------------5-------------------------3-3-5-6-----5------
|-----------------------8---8-----8-----8---0---3-------7-6--------
|-----------5-6-7-6-7-----7---7-6---6-5---5-----3------------------
|-5-8-7-5-8--------------------------------------------------------
|------------------------------------------------------------------
|------------------------------------------------------------------

|-5-3-2---0-6---5---------------------------5----------------------
|-------3-----7---8---------------------------8---8-----8-----8---0
|-------------------7-------------5-6-7-6-7-----7---7-6---6-5---5--
|-----------------------5-8-7-5-8----------------------------------
|------------------------------------------------------------------
|------------------------------------------------------------------

                                             GUITARRA 2
                                            |---------------------
                                            |---------------------
                                            |---0-----0-----0-----
                                            |---------------------
                                            |-5---5-4---4-3---3-2-
                                            |---------------------
                         D7      Gm      G7
Ven mi amor en la tarde del Aniene
                            Cm
y siéntate conmigo a ver el viento
                   G#        Gm
aunque no estés mi sólo pensamiento
                   A7                  D7 D7 D7 D7 Gm RE7(5to Trast) D7 Gm
es ver contigo el viento que va y viene
Gm              D7             Gm      G7
Tú no te vas porque mi amor te tiene
                                 Cm
yo no me iré pues junto a ti me siento
                G#              Gm
más vida de tu sangre más tu aliento
                A7-D7            Gm - G7
más luz del corazón que me sostiene

Cm                                Gm
Tú no te irás mi amor aunque lo quieras
                              A7
no te irás mi amor y si te fueras
                       D7         Ddim7-Ddim7-REb G7
aun yéndote mi amor jamás te irías
Cm             G#            Gm
es tuya mi canción en ella estoy
                               A7
y en ese viento que va y viene voy
                  D7          Gm - (G7)
y en ese viento siempre me verías.

Puente
Acompañamiento
Guitarra 2: D7 - Gm - D7 - Gm - Ddis7 Cm G# - Gm - A7 B7 - Gm

Punteo Guitarra 1

|---5-6-5-----5-5--11-11-11-10-8--6------------8-10----------11-11-
|-8-------8-7-7-7--13-13-13-11-10-8---11-10-11------11-8-----8-----
|-----------7--------------------------------------------11--8-----
|------------------------------------------------------------8-----
|------------------------------------------------------------------
|------------------------------------------------------------------

|-10-----------8---------13-13-13-13-13-15-16--11-11-11-10-
|-8---10-10-10---11----------------------------13-13-13-11-
|-8--------------------------------------------------------
|-8--------------------------------------------------------
|----------------------------------------------------------
|----------------------------------------------------------

|-----10-8-11-8-8-6-5--8---6---8--6-8--10---14--15-
|-8-8----------------8--10--8--10-8-10-12---14--15-
|------------------------------9--7-9--11---14--15-
|--------------------------------------------------
|--------------------------------------------------
|--------------------------------------------------

Cm                                Gm
Tú no te irás mi amor aunque lo quieras
                            A7
no te irás mi amor y si te fueras
                  D7            Ddim7-Ddim7-REb G7
aun yéndote mi amor jamás te irías
Cm             G#            Gm
es tuya mi canción en ella estoy
                                 A7
y en ese viento que va y viene voy
                  D7          Gm    G7
y en ese viento siempre me verías.

Cm                               Gm
Tú no te irás mi amor aunque lo quieras
                            A7
no te irás mi amor y si te fueras
                  D7            Ddim7-Ddim7-REb G7
aun yéndote mi amor jamás te irías
Cm             G#            Gm
es tuya mi canción en ella estoy
                                 A7
y en ese viento que va y viene voy
                  D7
y en ese viento siempre ...........me verías.

            A7      D7                  Gm
|-3-3-5-6-----5-5-3-2---0-6---5----------5---------
|-3-------------------3-----7------------3---------
|-3-------7-6----------------------------3---------
|----------------------------------------5---------
|----------------------------------------5---------
|----------------------------------------3---------

Acordes
D7 (Quinto Traste)
|--5---
|--7---
|--5---
|--7---
|--5---
|--5---

Ddim7
|--1---
|--1---
|--1---
|------
|------
|------

Db
|-2----
|-2----
|-2----
|------
|------
|------

Francamente, esta muy báscia, le hace falta algúno que otro detalle,
todo depende de la creatividad de ejecución pues la guitarra que
acompaña lleva un solo ritmo, pero la líder tiene mucho detalle. Sin
embargo espero que les guste.

Por:Marcel sarmiento
Colombia
Suggest correction
Give kudos to tab author, rate the tab!
1 2 3 4 5
comments
print report bad tab
guest
You may want to rate the tab now too:
select rating
Wanna post a correction for this tab? Suggest correction