Oops, an error
Loading. Please wait.

Qué Esperabas Tab

16 views 1 this week
no commentswrite comment
1 2 3 4 5
3 more votes to show rating
add to favorites
×
Save as Personal and add changes to this tab that will be seen only by you. Learn more ›
×
You can save this tab as Personal to edit and correct it or add notes. All changes will be seen only by you. Learn more »
save as personal
new!
launch autoscroll
font size
0
reset
how to read this tab
guitar tuner
Autoscroll
slow
fast
+/-
esc
set tempo
stop
Hola a todos, espero disfruten de esta cancion.
Los acordes los pueden obtener de la otra version que
esta aqui en LaCuerda.

intro
    D                   F#m       G                A
e-----------------------3/5~--------------------------
B---3~------3-5-5/7-5-3-------------------------------
G-2-------------------------------4~----4-4-7-7----6~-
D-----------------------------------------------------
A-----------------------------------------------------
E-----------------------------------------------------

    Bm                   A                  G
e-----------------------------------------------------
B---3~------3-5-5/7-5-3-2h3-2---2-3-3/5-3-2-2h3-2-0---
G-2---------------------------------------------------
D-----------------------------------------------------
A-----------------------------------------------------
E-----------------------------------------------------

        A
e-----------------------------------------------------
B-0-0-3-----------------------------------------------
G-------2~--------------------------------------------
D-----------------------------------------------------
A-----------------------------------------------------
E-----------------------------------------------------

despues del coro (min 1:46)       x2
e----2-0-----2-0-----2-0-----2-0-----0-------0--------
B--------3-------3-------3-------3-----3-2-----3-2----
G-2---------------------------------------------------
D-----------------------------------------------------
A-----------------------------------------------------
E-----------------------------------------------------

e-0-------0-------------------------------------------
B---3-2-----3-2---3-2-0---3-2-0---3-2-0---------------
G-----------------------------------------------------
D-----------------------------------------------------
A-----------------------------------------------------
E-----------------------------------------------------

e-----------------------------------------------------
B-0--3-3-2-2-3-3/5------------------------------------
G-----------------------------------------------------
D-----------------------------------------------------
A-----------------------------------------------------
E-----------------------------------------------------

final 2:44
e-----------------------------------------------------
B-2-0-2-3-3-2-3--3/5--3~------------------------------
G-----------------------------------------------------
D-----------------------------------------------------
A-----------------------------------------------------
E-----------------------------------------------------
Suggest correction
Give kudos to tab author, rate the tab!
1 2 3 4 5
comments
print report bad tab
guest
Wanna post a correction for this tab? Suggest correction