Oops, an error
Loading. Please wait.

Soñador Eterno Bass

version 1
version 1

Whole song

Interactive

70 views 3 this week
no commentswrite comment
1 2 3 4 5
3 more votes to show rating
add to favorites
launch autoscroll
font size
0
reset
guitar tuner
×
Best way to learn
"Soñador Eterno"
Autoscroll
slow
fast
+/-
esc
set tempo
stop
Esta Transcripcion va para todos aquellos seguidores de Intocable que
me pidieron rolas de ellos, pues aqui estan!!!

                            SOÑADOR ETERNO 
                             Intocable

Transcrita por: Nestor Sadao Arechiga Cervantes

La afinacion del Bajo es D dropped (D A D G) 

  Q=240                 Q=139
 4/4
  Gtr I
  W          W          W          Q  E E +E  S S Q
|----------|----------|----------|------4-(4)-2------|
|----------|----------|----------|-0--------------4--|
|----------|----------|----------|-------------------|
|----------|----------|----------|-------------------|


  Q  E E +E  E S S E   Q  E E +Q   Q
|------4-(4)-2-------|------0-(0)-----|
|--------------4---4-|-------------4--|
|-5------------------|-2--------------|
|--------------------|----------------|


  Q  E E +E  E S S E   Q  E E +S  S S S Q
|------0-(0)---------|---------------------|
|------------4-2---0-|---------------------|
|-2------------------|---------------------|
|--------------------|-5----5-(5)---5---4--|


  Q  E E +S  S E E E   S S S S E S S S S S S E E   E E Q  H
|--------------------|---------------------------|-------------|
|--------------------|---------------------------|-------------|
|----------------0-2-|-0---0---0-2---2---2---2-3-|-4-----------|
|-2----5-(5)---5-----|---------------------------|-------------|


  Q=143
  Q  Q  Q  Q    Q  Q  Q  Q    Q  Q  Q  Q    Q  Q  Q  Q
|-------------|-------------|-------------|-4-----------|
|-0-----------|-0-----------|----------4--|-------------|
|----------0--|-------------|-2-----------|-------------|
|-------------|----------4--|-------------|----------0--|


  Q  Q  Q  Q    Q  Q  Q  Q    Q  Q  Q  Q    Q  Q  Q  Q
|-------------|-------------|-------------|-2-----------|
|-------------|-------------|----------2--|-------------|
|----------2--|-------------|-0-----------|----0--2--4--|
|-5-----------|-2--------2--|-------------|-------------|


  Q  Q  Q  Q    Q  Q  Q  Q    Q  Q  Q  Q    Q  Q  Q  Q
|-------------|-7-----------|-------------|-4-----------|
|----------7--|-------------|----------4--|-------------|
|-5-----------|-------------|-2-----------|-------------|
|-------------|----------4--|-------------|----------0--|


  Q  Q  Q  Q    Q  Q  Q  Q    Q  Q  Q  Q    Q  Q  Q  Q
|-------------|-------------|-------------|-2-----------|
|-------------|-------------|----------2--|-------------|
|----------2--|-------------|-0-----------|----0--2--4--|
|-5-----------|-2--------2--|-------------|-------------|


  Q  +S  S S S Q  Q    Q  E E H      Q  E E Q  Q    E E E E Q  E E
|--------------4--2--|-------------|--------------|----------------|
|--------------------|-0-----------|--------0--4--|---4-----4----0-|
|-5--(5)---5---------|------0-4----|-2----2-------|-2---5-2----2---|
|--------------------|-------------|--------------|----------------|


  Q  E S S Q  Q    Q  E S S Q  Q    Q  E E E E E E   Q  Q  Q  Q
|----------------|----------------|----------------|-2-----------|
|----------------|----------------|--------------2-|-------------|
|----------------|-------------2--|-0----0-4-0-4---|----0--2--4--|
|-5----0---5--4--|-2----2---5-----|----------------|-------------|


  Q  +S  S S S Q  Q    Q  E E Q  Q    Q  E S S Q  Q    Q  E E Q  Q
|--------------4--2--|--------------|----------------|---------------|
|--------------------|-0------0-----|----------0--4--|---------------|
|-5--(5)---5---------|------0----4--|-2----0---------|-2------0--0---|
|--------------------|--------------|----------------|------4--------|


  Q  E S S Q  Q    Q  E S S Q  Q    Q  E E E E E E
|----------------|----------------|----------------|
|----------------|----------------|--------------2-|
|----------------|-------------2--|-0----0-4-0-4---|
|-5----0---5--4--|-2----2---5-----|----------------|


  S S S S S S S S S S S S S S S S   E S S S S E +Q   S S S S
|-2-------------------------------|-----------0-(0)----------|
|-----0---0---0---2---2---4---4---|-------0----------0-------|
|---------------------------------|---2------------------2---|
|---------------------------------|-5------------------------|


  E E S S E +Q   E S S   Q  E S S Q  E S S   Q  E S S Q  E E   Q  Q  Q  Q
|---------0-(0)--------|-------------------|-----------------|--------------|
|-----0----------------|----7--------------|----4------------|--------------|
|---2------------2-4---|-5----5---4--0-4---|-2----2---0----0-|--------------|
|-5--------------------|-------------------|-------------2---|-5-----0------|


  H    H      Q  E S S Q  Q    E E Q  H      E E +S  S E E E Q
|------5----|-6--------------|-------------|---2-(2)------------|
|-----------|----------------|-------------|-----------4---4-2--|
|-----------|------2---2--3--|-4-----------|--------------------|
|-5----6----|-7--------------|-------------|--------------------|


  Q=139
  E E Q  H      Q  E E +E  S S Q    Q  E E +E  E S S E   Q  E E +Q   Q
|-------------|------4-(4)-2------|------4-(4)-2-------|------0-(0)-----|
|-------------|----------------4--|--------------4---4-|-------------4--|
|-5-----------|-5-----------------|-5------------------|-2--------------|
|-------------|-------------------|--------------------|----------------|


  Q  E E +E  E S S E   Q  E E +S  S S S Q
|------0-(0)---------|---------------------|
|------------4-2---0-|---------------------|
|-2------------------|---------------------|
|--------------------|-5----5-(5)---5---4--|


  Q  E E +S  S E E E   Q  E E E E E E
|--------------------|----------------|
|--------------------|--------------2-|
|----------------0-2-|-0----0-4-0-4---|
|-2----5-(5)---5-----|----------------|


  Q  Q  Q  Q    Q  E E +E  S S Q    Q  E E +E  E S S E   Q  E E +Q   Q
|-2-----------|------4-(4)-2------|------4-(4)-2-------|------0-(0)-----|
|-------------|----------------4--|--------------4---4-|-------------4--|
|----0--2--4--|-5-----------------|-5------------------|-2--------------|
|-------------|-------------------|--------------------|----------------|


  Q  E E +E  E S S E   Q  E E +S  S S S Q    Q  E E +S  S E E E
|------0-(0)---------|---------------------|--------------------|
|------------4-2---0-|---------------------|--------------------|
|-2------------------|---------------------|----------------0-2-|
|--------------------|-5----5-(5)---5---4--|-2----5-(5)---5-----|


                                            Q=143
  S S S S E S S S S S S E E   E E Q  H      Q  Q  Q  Q    Q  Q  Q  Q
|---------------------------|-------------|-------------|-7------------|
|---------------------------|-------------|----------7--|--------------|
|-0---0---0-2---2---2---2-3-|-4-----------|-5-----------|--------------|
|---------------------------|-------------|-------------|----------4---|


  Q  Q  Q  Q    Q  Q  Q  Q    Q  Q  Q  Q    Q  Q  Q  Q
|-------------|-4-----------|-------------|-------------|
|----------4--|-------------|-------------|----------2--|
|-2-----------|-------------|-------------|-------------|
|-------------|----------0--|-5--------4--|-2-----------|


  Q  E E E E E E   Q  Q  Q  Q    Q  +S  S S S Q  Q    Q  E E H
|----------------|-2-----------|--------------4--2--|-------------|
|--------------2-|-------------|--------------------|-0-----------|
|-0----0-4-0-4---|----0--2--4--|-5--(5)---5---------|------0-4----|
|----------------|-------------|--------------------|-------------|


  Q  E E Q  Q    E E E E Q  E E   Q  E S S Q  Q    Q  E S S Q  Q
|--------------|----------------|----------------|----------------|
|--------0--4--|---4-----4----0-|----------------|----------------|
|-2----0-------|-2---5-2----2---|----------------|-------------2--|
|--------------|----------------|-5----0---5--4--|-2----2---5-----|


  Q  E E E E E E   E E Q  E E Q    Q  +S  S S S Q  Q    Q  E E Q  Q
|----------------|-2-2-0---------|--------------4--2--|--------------|
|--------------2-|--------4-4-2--|-0--(0)---0---------|-0------0-----|
|-0----0-4-0-4---|---------------|--------------------|------0----4--|
|----------------|---------------|--------------------|--------------|


  Q  E S S Q  Q    Q  E E Q  Q    Q  E S S Q  Q    Q  E S S Q  Q
|----------------|--------------|----------------|-----------------|
|----------0--4--|--------------|----------------|-----------------|
|-2----0---------|-2------0--0--|----------------|-------------2---|
|----------------|------4-------|-5----5---5--4--|-2----2---5------|


  Q  E E E E E E   S S S S S S S S S S S S S S S S   E S S S S E +Q   S S S S
|----------------|-2-------------------------------|-----------0-(0)-----------|
|--------------2-|-----0---0---0---2---2---4---4---|-------0----------0--------|
|-0----0-4-0-4---|---------------------------------|---2------------------2----|
|----------------|---------------------------------|-5-------------------------|


  E E S S E +Q   E S S   Q  E S S Q  E S S   Q  E S S Q  E E   Q  Q  Q  Q
|---------0-(0)--------|-------------------|-----------------|--------------|
|-----0----------------|----7--------------|----4------------|--------------|
|---2------------2-4---|-5----5---4--0-4---|-2----2---0----0-|--------------|
|-5--------------------|-------------------|-------------2---|-5-----0------|


  H    H      Q  E S S Q  Q    E E Q  H      E E +S  S E E E Q
|------5----|-6--------------|-------------|--------------------|
|-----------|----------------|-------------|---7-(7)---4---4-2--|
|-----------|------2---2--3--|-4-----------|--------------------|
|-5----6----|-7--------------|-------------|--------------------|


  Q=132          Q=117      Q=120
  E E Q  Q  Q    W           +H     H
|-----2--4-----|----------|--------------*|
|-0---------4--|----------|--------------*|
|--------------|-5--------|--------------*|
|--------------|----------|-(12)---------*|

FIN!!!
- BUENO AQUI ABAJO ESTA EL SIGNIFICADO DE LAS LETRAS Y LOS SIGNOS...
- ESPERO QUE LES HAYA AGRADADO Y SOBRETODO QUE LE HAYAN ENTENDIDO...
- POR SI ALGUNA RAZON NO LE ENTIENDEN PUES HECHENME UN MAIL A: sNaKePiTs@
- SI QUIEREN ALGUNA PETICION PUES TAMBIEN HECHENME UN MAIL...
- ESTA CANCION Y OTRAS LAS TENGO EN ARCHIVOS POWERTAB, POR SI ALGUIEN LA QUIERE...
  PUES HECHENME UN MAIL PIDIENDOLAS...
- LOS VERE EN LA PROXIMA CANCION!!!...


NOTA!!!: PUEDEN UTILIZAR ESTA TAB PARA PUBLICARLA DONDE USTEDES
QUIERAN, PERO POR FAVOR LES RUEGO QUE ME DEN LOS CREDITOS COMO
TRANSCRIPTOR DE LA MISMA...GRACIAS!!!

NESTOR SADAO ARECHIGA CERVANTES (sNaKePiTs@


LEYENDA DE LAS NOTAS:

W = (REDONDA)     NOTA COMPLETA
H = (BLANCA)      MEDIA NOTA
Q = (NEGRA)       CUARTO DE NOTA
E = (CORCHEA)     OCTAVO DE NOTA
S = (SEMICORCHEA) DIECISEISAVA DE NOTA
T = (FUSA)        TREINTAIDOSAVA DE NOTA
X = (SEMIFUSA)    SESENTAICUATROAVA DE NOTA

a  =  ACCIACCATURA
+  =  LIGADURA
.  =  AUMENTA LA DURACION DE LA NOTA
.. =  AUMENTA LA DOBLE DE LA DURACION DE LA NOTA


LEYENDA DEL 'PENTAGRAMA'
 |  - COMPAS
||  - DOBLE COMPAS
||o - ES DONDE VA A COMENZAR CUANDO ALGO SE VA A REPETIR
o|| - ES DONDE VA A TERMINAR CUANDO ALGO SE VA A REPETIR
*|  - FIN DE LA CANCION
 :  - COMPAS LIBRE
 $  - SEGNO (AL VER ESTE SIGNO, TENEMOS QUE RETROCEDER HASTA VER EL SIGNO ANTERIOR $...)
 &  - CODA (SIGNIFICA QUE DEBES PASAR LA SIGUIENTE SIGNO &)
Suggest correction
Give kudos to tab author, rate the tab!
1 2 3 4 5
comments
print report bad tab
guest
You may want to rate the tab now too:
select rating
Wanna post a correction for this tab? Suggest correction