Oops, an error
Loading. Please wait.

Y Todo Para Qué Bass

199 views 3 this week
no commentswrite comment
1 2 3 4 5
3 more votes to show rating
add to favorites
launch autoscroll
font size
0
reset
guitar tuner
×
Best way to learn
"Y Todo Para Qué"
Autoscroll
slow
fast
+/-
esc
set tempo
stop
q rollo gente ps aqui dejandoles esta rolita
es mi primera transcripcion asi q ahi les va.

INTRO
G----------/---------/----------/-------------/
D-------5--/---5---5-/----5---5-/-------------/
A---3-3----/-3---3---/--3---3---/---7----7----/
E----------/---------/----------/------7----7-/
B----------/---------/----------/-------------/

G------------------14-14-/-12----------------12/-----------/
D------------------------/-----9--10--11--12---/-10--------/
A--8---8----12-----------/---------------------/----10-8-5-/
E----8---8------12-------/---------------------/-----------/
B------------------------/---------------------/-----------/
 PT1
G----------/--5----5-4-/---------/-------4/
D----5---5-/----5------/-----7---/---5-7--/
A--3---3---/-----------/---7---7-/-7------/
E----------/-----------/-5-------/--------/
B----------/-----------/---------/--------/

G------------/----------/----------/--------/---------7-/-5---5-4-/
D------------/----------/--------4-/-5---5--/-5-----5---/---5-----/
A--7---7---7-/--8-7-5-7-/--8---8---/---5---5/---8-7-----/---------/
E----7---7---/----------/----8-----/--------/-----------/---------/
B------------/----------/----------/--------/-----------/---------/


G---------/-------------/---------/---------/----------/---7--12-7-/
D-7-------/---5-7-9--5-7/---------/---------/--------4-/-5---------/
A---7---7-/-7-----------/-7---7--7/-8-7-5-7-/-8---8----/-----------/
E-----5---/-------------/---7---7-/---------/---8------/-----------/
B---------/-------------/---------/---------/----------/-----------/
                PT2
G----------7-6/-5------/-5------------/--------/----------/---------/
D-5------5----/---5---5/---5-5------5-/-------9/----------/---------/
A---8--7------/-----3--/----------3---/-7---7--/-7---7---7/-8-7-5-7-/
E-------------/--------/--------------/---7----/---7---7--/---------/
B-------------/--------/--------------/--------/----------/---------/

G---------/---------/----------7/-5-------/-5------------/----------/
D--------4/-5---5---/-5------5--/---5---5-/---5-5------5-/--------9-/
A-8---8---/---5---5-/---8--7----/-----3---/----------3---/--7---7---/
E---8-----/---------/-----------/---------/--------------/----7-----/
B---------/---------/-----------/---------/--------------/----------/
                                                          FINAL---->
G----------/------------/--------------/-------------12-/-----------/
D----------/------------/----------9-12/----------------/-10--------/
A-7---7---7/-8---8-7-8-9/-10----10-----/----------------/----10---10/
E---7---7--/---8--------/----10--------/-8-8-8-8-8-8----/-------8---/
B----------/------------/--------------/----------------/-----------/

G---------------/
D-10------------/
A----10-10------/
E-----------8---/
B---------------/

VALLANSE CON LA CANCION PARA QUE VEAN COMO VA.

PT1
QUE MAS QUIERES DE MI,
SI YA TODO TE DI,
TE DI MI CARIN~O, TE DI MI CONFIANZA,
TE DI MI CALOR.

QUE MAS QUIERES DE MI,
MI VIDA TE LA DI,
POR TAN SOLOUN MINUTO,
POR TAN SOLO UN POQUITO,
DE TU GRAN PASION.

PT2
Y TODO PARA QUE,
Y TODO PARA QUE,
PARA QUE TANTO AMOR,
PARA QUE ILUSIONASTE,
PARA QUE ENAMORASTE
A MI CORAZON.

Y TODO PARA QUE,
Y TODO PARA QUE,
SI AL FINAL YO PERDI,
PERO NO ME ARREPIENTO,
SI EN CADA MOMENTO,
ME HICISTE FELIZ.

PT1
QUE MAS QUIERES DE MI,
A DONDE QUIERES LLEGAR,
QUE NO TE HAS DADO CUENTA,
QUE POR NO MIRARTE,
ME PUEDES MATAR,

QUE MAS QUIERES DE MI,
DIMELO POR FAVOR,
YA NO ENCUENTRO PALABRAS,
NO ENCUENTRO LA FORMA,
DE DARTE MI AMOR.

PT2
Y TODO PARA QUE,
Y TODO PARA QUE,
PARA QUE TANTO AMOR,
PARA QUE ILUSIONASTE,
PARA QUE ENAMORASTE
A MI CORAZON.

Y TODO PARA QUE,
Y TODO PARA QUE,
SI AL FINAL YO PERDI,
PERO NO ME ARREPIENTO,
SI EN CADA MOMENTO,
ME HICISTE FELIZ.

FINAL

PS AY SE LAS DEJO ESTA BUENA ROLITA DE INTOCABLE
SALUDOTES PA TODOS
CUALQUIER DUDA O COMENTARIO A MI CORREO
ZIDE_18@
Suggest correction
Give kudos to tab author, rate the tab!
1 2 3 4 5
comments
print report bad tab
guest
You may want to rate the tab now too:
select rating
Wanna post a correction for this tab? Suggest correction