Oops, an error
Loading. Please wait.

Don Electrón Tab

41 views 1 this week
no commentswrite comment
1 2 3 4 5
3 more votes to show rating
add to favorites
launch autoscroll
font size
0
reset
how to read this tab
guitar tuner
Autoscroll
slow
fast
+/-
esc
set tempo
stop
Help us to improve Ultimate-Guitar.com Take our survey!
×
INTRO:
   A   C#m   A   C#m     A      C#m
e|----|----|----|----|--------|---------|
B|----|----|----|----|--------|---------|
G|----|----|----|----|--------|-------9-|
D|----|----|----|----|--9-11--|--9/11---|
A|----|----|----|----|--------|---------|
E|----|----|----|----|--------|---------|
   A            C#m        A      C#m
---------|--------------|-----|----------|
---------|--------------|-----|----------|
---------|------6h7p6---|6--9-|----------|
--9-11-7-|--7/9-------9-|-----|--6h7p7---|
---------|--------------|-----|--------7-|
---------|--------------|-----|----------|
 A    C#m     A sueño que..
---|------|-------------
---|------|--------------
---|------|-------------
7--|------|7--------------
---|--7/9-|--------------
---|------|--------------

A              C#m
 Sueño que sueño que estoy soñando
     A              C#m
y de fondo una musica tipo rocanrol
A           C#m
 sueño no se en que
A             C#m
sueño que soy un electron.
e|-----------|-------------------|--
B|-----------|9h10p9-------------|-
G|-----------|---------6-7-6---7-|6-
D|-----------|---------------9---|--

A             C#m
 Y que con mis compañeros
     A            C#m
nos unimos para hacer algo nuevo
A           C#m
 pero no se que
      A         C#m            D
es lo que me esta pasando ahora, en este momento.

              A         C#m       A       C#m
Seguro que soy yo
e|----------|--------|--------|--------|------------|
B|----------|--------|--------|--------|------------|
G|----------|------9-|------9-|--------|-----6h7p6--|
D|----------|-9-11---|-9/11---|-9-11-7-|-7/9-------9|
A|----------|--------|--------|--------|------------|
E|----------|--------|--------|--------|------------|
        A       C#m     A    C#m   A no tengas..
Don Electron!
e|-----------|--------|---|------|-------------
B|-----------|--------|---|------|--------------
G|-6-----9---|--------|---|------|-------------
D|-----------|-6h7p7--|7--|------|7--------------
A|-----------|-------7|---|--7/9-|--------------
E|-----------|--------|---|------|--------------

No tengas miedo de arriesgarte
la vida es corta, no te va a esperar
si te quedas ahi sentado
el futuro te podria alcanzar.
e|-----------|-------------------|--
B|-----------|9h10p9-------------|-
G|-----------|---------6-7-6---7-|6-
D|-----------|---------------9---|--

Mejor hacer algo nuevo
y despues ponerse a soñar
soñar en no se que
sin saber que me esta pasando ahora, en este momento.

              A         C#m      A         C#m
Seguro que soy yo
e|----------|--------|--------|--------|------------|
B|----------|--------|--------|--------|------------|
G|----------|------9-|------9-|--------|-----6h7p6--|
D|----------|-9-11---|-9/11---|-9-11-7-|-7/9-------9|
A|----------|--------|--------|--------|------------|
E|----------|--------|--------|--------|------------|
      A         C#m     A   C#m    A   saxoo..
Don Electron!
e|-----------|--------|---|------|-------------
B|-----------|--------|---|------|--------------
G|-6-----9---|--------|---|------|-------------
D|-----------|-6h7p7--|7--|------|7--------------
A|-----------|-------7|---|--7/9-|--------------
E|-----------|--------|---|------|--------------

FIN: Cm#
Suggest correction
Give kudos to tab author, rate the tab!
1 2 3 4 5
comments
print report bad tab
guest
You may want to rate the tab now too:
select rating
Wanna post a correction for this tab? Suggest correction