Oops, an error
Loading. Please wait.

Felicidad, Depresión Tab

11 views 1 this week
no commentswrite comment
1 2 3 4 5
3 more votes to show rating
add to favorites
launch autoscroll
font size
0
reset
how to read this tab
guitar tuner
Autoscroll
slow
fast
+/-
esc
set tempo
stop
Help us to improve Ultimate-Guitar.com Take our survey!
×
Estrofa

   A                                  Am
e|-------------------------------------------------------------------
B|-------2-----2-----2-----2------2---------1-----1-----1-----1-----1
G|-----2---2-----2-----2-----2------------2---2-----2-----2-----2----
D|---2-------2-----2-----2-----2--------2-------2-----2-----2-----2--
A|-0----------------------------------0------------------------------
E|-------------------------------------------------------------------

Riffs
   1
e|------------0-0--------------
B|-------1-1------1-1-----1-1--
G|-----2--------------2-2------
D|---2-------------------------
A|-0---------------------------
E|-----------------------------

   2                     3
e|----------------------|-------------------|
B|----------------------|-------------------|
G|-----4s6-4--4-6-7-----|4ba--2ba--4ba--2ba-|
D|-7------------------7-|-------------------|
A|-----2s4-2--2-4-5-----|-------------------|
E|-5------------------5-|-------------------|

  4
e|--------------------------------------------------------------
B|------2-----2------2-----2-----2h3-2-----2-----2-----2---2h3-2
G|----2---2-----2------2-----2---------2-----2-----2-----2------
D|--2-------2-----2------2---------------2-----2-----2----------
A|0-------------------------------------------------------------
E|--------------------------------------------------------------

  5 (durante riff 4)
e|------------------------|-------------------------------------
B|------------------------|-------------------------------------
G|-6baba--4baba-2v--6baba-|-------------------------------------
D|------------------------|-------------------------------------
A|------------------------|-------------------------------------
E|------------------------|-------------------------------------


No tengo ganas de subir, pero tampoco de bajar
Pensar tanto no tiene sentido, no veo la gente al pasar
Es tan difícil ser feliz, pero no es inalcanzable

                                                  Riff 1
Solo debo destruir, esas cosas que en mi mente arden


Riff 2 durante estribillo:

A            B             C# D                   A  Riff 3
Quiero saber que voy a hacer para encontrarle el sentido

A           B       C# D                  A
Felicidad, depresión  de la mano en el camino

Riff 4 y 5 a la vez


Solo de saxo

A - D - A - D - A - D - E - D - E - D - A


Todo es tan fácil que se hace difícil, aunque me pueda entretener
Y me dan ganas de alejarme, pero estando lejos quiero volver
Es tan difícil ser feliz, pero no es inalcanzable
Solo debo destruir, esas cosas que en mi mente arden


A           B              C# D                   A
Quiero saber que voy a hacer para encontrarle el sentido
A           B       C# D                 A
Felicidad, depresión  de la mano en el camino.


Solo de saxo sobre: A - C#m

mientras, la guitarra hace con slide:

e|-12s17v--12s17-16v---------------
B|---------------------------------
G|---------------------varias-veces
D|---------------------------------
A|---------------------------------
E|---------------------------------
Suggest correction
Give kudos to tab author, rate the tab!
1 2 3 4 5
comments
print report bad tab
guest
You may want to rate the tab now too:
select rating
Wanna post a correction for this tab? Suggest correction