Oops, an error
Loading. Please wait.

Religión Tab

version 1
version 1

Whole song

123 views 1 this week
no commentswrite comment
1 2 3 4 5
3 more votes to show rating
add to favorites
launch autoscroll
font size
0
reset
how to read this tab
guitar tuner
Autoscroll
slow
fast
+/-
esc
set tempo
stop
Help us to improve Ultimate-Guitar.com Take our survey!
×
Intro: D5 - A#5 - C5 - A5

Riff Intro:

e/--------------------------------------------------------------------
b/--------------------------------------------------------------------
g/--------------------------------------------------------------------
d/--------------------------------------------------------------------
a/--5---7-8--7-5----5--7-8-7-5---5------------5-------5-7-5--------5--
e/-----------------------------8---8--6---6-8---8---8-------8-6-5----5

-------------------------------->x2<--------------------------------/


D5
poco a poco pude notar
     A#5
que en la vida hay mas de una realidad
    C5
cada casa es un mundo,
cada mente un planeta
     A5
donde tus ideas forman tu personalidad

Nada esta bien nada esta mal
todo es distinto es tu forma de pensar
no estoy arrepentido por lo que hice ayer
pero lo que no te gusto
voy a tratar de cambiar


Riff Intro


Muchos confunden la felicidad
con todas esas cosas que no pueden comprar
yo no se si sera la televisión
que les muestra un culo que no pueden tocar

Mis amigos, mi familia, mi perro y el sol
son las cosas que yo tengo como religión
la vida es tan sencilla pero algunos no lo ven
y solo buscan subirse a un marcedes benz

G5
cual es la diferencia entre un remisero,
   A5
un obrero, un profesor de facultad
   A#5
un cantante de rock,el que vende estampitas
   C5
vivir en el campo o vivir en la ciudad
         A5
si da lo mismo ser linyera que millonario
 A#5
robar toda la vida o salir a laburar
    C5
ser lindo,ser feo,ser bueno,ser malo
       A5
lo importante es si supiste disfrutar


Solo:

Segunda Guitarra:  D5 - A#5 - C5 - A5    x2

Primera Guitarra:


e/-------------------------------------------------------------------
b/-------------------------------------------------------------------
g/-/10-9-10-12--10-9---------------------9-10-9----------------------
d/--------------------12-10--8---8-10-12-----------------------------
a/-------------------------------------------------------------------
e/-------------------------------------------------------------------

e/-------------------------------------------------------------------
b/---------------------------------10-11-13-13b--11----------15p14-15
g/-12--12-12-10-9----------9-10-12------------------14---14----------
d/----------------12-10-12-------------------------------------------
a/-------------------------------------------------------------------
e/-------------------------------------------------------------------

e/-------------------------------------------------------------------
b/-15-18-15----------------------------------------------------------
g/----------17-15----------------------------------------------------
d/----------------17-15----15-17-17Bd------15-17-17bd-17Bd---17-15-12
a/----------------------17------------15-17--------------------------
e/-------------------------------------------------------------------

e/-------------------------------------------------------------------
b/--------------------------------------------19---------------------
g/-----------15---15-17---15-17-15-17-15-17-19--19b------------------
d/---12-15-17--17----------------------------------------------------
a/-------------------------------------------------------------------
e/-------------------------------------------------------------------


G5
cual es la diferencia entre un remisero,
   A5
un obrero, un profesor de facultad
   A#5
un cantante de rock,el que vende estampitas
   C5
vivir en el campo o vivir en la ciudad
         A5
si da lo mismo ser linyera que millonario
 A#5
robar toda la vida o salir a laburar
    C5
ser lindo,ser feo,ser bueno,ser malo
       A5
lo importante es si supiste disfrutar


Riff Intro


Referencias:

b: Bend up
Bd:Bend down
/: Slide


Aca esta mi version completa de Religion, para mi uno de las mejores
canciones de Intoxicados!
Yo la voy tocando 2 veces con mi banda en un escenario y nos sale
de 10!!
Espero puedan enganchar el ritmo en el solo. Practiquenlo...!
Esta es la primer cancion que subo espero les guste!
Suerte y nos vemos!
Suggest correction
Give kudos to tab author, rate the tab!
1 2 3 4 5
comments
print report bad tab
guest
You may want to rate the tab now too:
select rating
Wanna post a correction for this tab? Suggest correction