Oops, an error
Loading. Please wait.

Religión Tab

version 2
version 2

Whole song

59 views 3 this week
no commentswrite comment
1 2 3 4 5
3 more votes to show rating
add to favorites
launch autoscroll
font size
0
reset
how to read this tab
guitar tuner
Autoscroll
slow
fast
+/-
esc
set tempo
stop
Help us to improve Ultimate-Guitar.com Take our survey!
×
  Intro
e|--------------------------------------------------------------------
B|--------------------------------------------------------------------
G|--------------------------------------------------------------------
D|--------------------------------------------------------------------
A|-5--7-8-7-5---5-5--7-8-7--5----5-------3h5-3--------5-7-5--------5--
E|----------------------------8-----8-6-----------6-6--------8-6-5---5


  Solo
e/---------------------------------------------------------------------
b/---------------------------------------------------------------------
g/-/10-9-10-12--10-9-9---------------------9-10-9----------------------
d/----------------------12-10--8---8-10-12-----------------------------
a/---------------------------------------------------------------------
e/---------------------------------------------------------------------

e/-------------------------------------------------------------10-------
b/---------------------------------10-11-13-13b-13-11-10----------10-13b
g/-12--12-12-10-9----------9-10-12-------------------------12b----------
d/----------------12-10-12----------------------------------------------
a/----------------------------------------------------------------------
e/----------------------------------------------------------------------

e|-10-13-10-------10----------------------------------------------------
B|----------13-10-----13p10-10------------------------------------------
G|------------------------------12ba-p10----10-12ba----------10-12b-12ba
D|---------------------------------------12--------------s12------------
A|---------------------------------------------------s12----------------
E|----------------------------------------------------------------------


e|--------------------10--------10-----------10----10--------15--------
B|-----------------10----13--10----13--10-13----13------15b/----15/-15b
G|-12-----10---12b-----------------------------------------------------
D|----s12--------------------------------------------------------------
A|---------------------------------------------------------------------
E|---------------------------------------------------------------------
Suggest correction
Give kudos to tab author, rate the tab!
1 2 3 4 5
comments
print report bad tab
guest
You may want to rate the tab now too:
select rating
Wanna post a correction for this tab? Suggest correction