Oops, an error
Loading. Please wait.

Religión Tab

version 3
version 3

Whole song

26 views 3 this week
no commentswrite comment
1 2 3 4 5
3 more votes to show rating
add to favorites
launch autoscroll
font size
0
reset
how to read this tab
guitar tuner
Autoscroll
slow
fast
+/-
esc
set tempo
stop
Help us to improve Ultimate-Guitar.com Take our survey!
×
Hola que tal, aca mando el solo de Religión, un temaso de Intoxica2, que fue por muchisimos pedidos al mail.
Un beso enorme a todo el colegio Santa Clara y al Grego.

SOLO

1|---------------------------------------------------------------------------------------------------------------|
 |---------------------------------------------------------------------------------------10-11-13-13b13-11-10----|
 |-10---9-10--12-10--10-10-----------------------9^10^9--12-12-12--10-9----------9-10-12-------------------------|
 |-------------------------12--10---------10-12-------------------------12-10-12---------------------------------|
 |--------------------------------13---13------------------------------------------------------------------------|
6|---------------------------------------------------------------------------------------------------------------|


1|------10--------10^13----10-------------------------------------------------------------------------------10---------10-----------10----10---15--------|
 |------10--13b---------13-----13^10^13^10------------------------------------------------------------------10---13-10----13--10-13----13------15b-15b---|
 |--12b-------------------------------------12b^10----10-12b--12^10----10--12b-12b-12b----12^10-----10--12b----------------------------------------------|
 |-------------------------------------------------12---------------12---------------------------12------------------------------------------------------|
 |-------------------------------------------------------------------------------------------------------------------------------------------------------|
6|-------------------------------------------------------------------------------------------------------------------------------------------------------|


Esta a mi gusto, muy bien sacado, eso si, traten de leer bien el riff porque sino va a sonar cualquier cosa
En la parte de la escala semi disminuida traten de hacerla muy rapido, no importa si no les sale con sonido limpio, lo importante en este tema
es tocaro rápido y sucio.

Espero que lo disfruten.
Chau hasta luego
Suggest correction
Give kudos to tab author, rate the tab!
1 2 3 4 5
comments
print report bad tab
guest
You may want to rate the tab now too:
select rating
Wanna post a correction for this tab? Suggest correction