Oops, an error
Loading. Please wait.

Roberto Gómez Bolaños Tab

20 views 3 this week
no commentswrite comment
1 2 3 4 5
3 more votes to show rating
add to favorites
launch autoscroll
font size
0
reset
how to read this tab
guitar tuner
Autoscroll
slow
fast
+/-
esc
set tempo
stop
Help us to improve Ultimate-Guitar.com Take our survey!
×
wenas les dejo es6ta transcripcion de est tmaso

enpieza con E al principio


E
Argentina tiene a maradona
                    B
Mariguana tiene Paraguay

Y los valles tiene Bolivia
                  E
lo se anduve por alla

En Peru me hice adicto a la pasta frola
                           A
Y gardel dice qe es del Uruguay
                      E
Pero los hermanos mexicanos
      A      B         E   (B-E)
tiene lo mas grande qe hay
E
roberto gomez bolaños
                        B
De chiqito yo te veia actuar

Roberto gomez bolaños

de grande te sigo viendo
  E
igual...

ak esta el solo buenisimo

e|-----4-4-5-4-----4---------------------------------------------------
B|-------------7-5---5~------5-5-7-5-4------7-7-7-7-7-5-4-5-4~-4-4-4-5-
G|-4-4-------------------4-4-----------6-4~----------------------------
D|---------------------------------------------------------------------
A|---------------------------------------------------------------------
E|---------------------------------------------------------------------

---------------4-4-4-4-4-5-4-----4--------------------------4-5~--
-4---------------------------7-5---5~------5-5-5-5-5-7-5-7--------
---6-4-4~--4-4------------------------4-4-------------------------
------------------------------------------------------------------
------------------------------------------------------------------
------------------------------------------------------------------

-5-5-5-5-5-5-7--5-5-4---------------|
------------------------------4-4-5-|
----------------------4-4-6-6-------|
------------------------------------|
------------------------------------|
------------------------------------|

el solo no esta el 100% bien pero masomenos esta
cualquier duda manden msj a matiasamanecido_rnr97@
Suggest correction
Give kudos to tab author, rate the tab!
1 2 3 4 5
comments
print report bad tab
guest
You may want to rate the tab now too:
select rating
Wanna post a correction for this tab? Suggest correction