Oops, an error
Loading. Please wait.

Rodando Por Ahí Tab

version 2
version 2

Whole song

11 views 1 this week
no commentswrite comment
1 2 3 4 5
3 more votes to show rating
add to favorites
launch autoscroll
font size
0
reset
how to read this tab
guitar tuner
Autoscroll
slow
fast
+/-
esc
set tempo
stop
Help us to improve Ultimate-Guitar.com Take our survey!
×
Rodando Por Ahi- Intoxicados


  Riff 1             Riff 2                   Riff 3
e|-----------------|------------------------|-----------------
B|-----------------|-3s6--6-6--3-3----0-----|-----------------
G|---3-5-3----5--5-|-4s7--7-7--4-4s2--0---0-|-----------------
D|-5-3-5-3-5--5--5-|--------------------2-0-|-5---5-----------
A|---------5-------|------------------------|-5---5---5ba-3-3-
E|-----------------|------------------------|-3---3-----------

Intro:

Riff 1 toda la intro

y se van alternando riff 2 y riff 3

  Riff 4          Riff 5      Riff 6      Riff 7     Riff 8
e|--------------|-----------|------------|---------|-------------|
B|--------------|-----------|------------|---------|-----3-------|
G|-5--5----5--5-|-----------|-5--------5-|-------5-|-2s4---4s2-0-|
D|-5--5----5--5-|-5-5---5-5-|-5---7ba--5-|-7ba-5-5-|-------------|
A|-3--3----3--3-|-5-5---5-5-|-3----------|---------|-------------|
E|--------------|-3-3---3-3-|------------|---------|-------------|

Riff 9
--------------------------
--------------------------
--------------------------
-5-----5-----5-----5------
-3-6-7-3-6-7-3-6-7-3------

  Riff 10          Riff 11
e|---------------|-------------|
B|-5-5--6-6--5-5-|-8---8-8-----|
G|-5-5--5-5--5-5-|-7b----7ba-5-|
D|-5-5--5-5--5-5-|-------------|
A|-3-3--3-3--3-3-|-------------|
E|---------------|-------------|


G5                                           C5  Riff 4
Cuando Pienso cuanto tiempo de vida voy llevando

G5                                           C5  Riff 4
Cuando me acuerdo de cosas y lugares que pase

G5                                        C5  Riff 4
Las canciones que hice mientras iba jugando

G5                                      C5  Riff 4
La primera vez que en verdad me embriague

G5   Riff 5                             C5   Riff 6
Mucha gente he conocido en barrios lejanos

G5   Riff 5                             C5  Riff 7 X2
¿Cuantas veces aburrido al diablo llame?

G5  Riff 5                                   C5  Riff 7 X2
¿De cuantas chicas buenas me habré enamorado?

G5   Riff 5                      C5  Riff 7  Riff 8
¿Cuanto vino tinto caliente tome?


Riff 9
Todo eso me dice que estuve rodando

C5
¡Rodando por ahí! ¡Rodando por ahí!

Riff 9
No se cuando empecé ni como comencé

C5                Riff 10
¡Rodando por ahí!


F5         C5        G5   Riff 8
¡Estuve rodando por ahí!


¡Estuve rodando por ahí!

                       D5
¡Estuve rodando por ahí!


G5                                              C5  Riff 4
Cuando los meses pasan y mi ropa no ha cambiado


G5                                        C5  Riff 4
Cuando me acuerdo de fotos que nunca saque


G5                                  C5  Riff 4
Todo eso me dice que estuve rodando


G5                                  C5  Riff 4
No se cuando empecé ni como comencé


G5   Riff 5                             C5   Riff 7 X2
Mucha gente he conocido en barrios lejanos

G5   Riff 5                             C5  Riff 7  Riff 11
¿Cuantas veces aburrido al diablo llame?

G5  Riff 5                                   C5  Riff 7 Riff 11
¿De cuantas chicas buenas me habré enamorado?

G5   Riff 5                      C5  Riff 7  Riff 8
¿Cuanto vino tinto caliente tome?


Riff 9
Todo eso me dice que estuve rodando

C5
¡Rodando por ahí! ¡Rodando por ahí!

Riff 9
No se cuando empecé ni como comencé

C5                Riff 10
¡Rodando por ahí!


F5         C5        G5   Riff 8
¡Estuve rodando por ahí!


¡Estuve rodando por ahí!

                      D5
¡Estuve rodando por ahí!


Solo


e|-3------3------3------3------3-----------------------------------------
B|---6------6------6------6------6----6-----6----6----6-----15--15-15----
G|-----5b-----5b-----5b-----5b-----5--5ba---5ba--5ba--5ba---17b----15b---
D|---------------------------------------------------------------------17
A|-----------------------------------------------------------------------
E|-----------------------------------------------------------------------


e|---------------------------15-----15-----15-----15---------3--------
B|-15----15--15-15-------15-----15-----15-----15---------------3--6b--
G|----17-17b----15b------17b----17b----17b----17b--------5b-----------
D|------------------17------------------------------------------------
A|--------------------------------------------------------------------
E|--------------------------------------------------------------------


e|-3------3---3----------------------------------------------
B|---3--6---6-------------------6------------------6---------
G|---------------5ba-p3---3--5b---5p3---3----3--5b---5p3---3-
D|----------------------5-------------5----5-------------5---
A|-----------------------------------------------------------
E|-----------------------------------------------------------

----------3----3-
-----------------
----3--5b---5b---
5----------------
-----------------
-----------------


e|----3-----3----3---------------------
B|-------------------5ba---5ba----3----
G|-5b---5b----5b---------3-----3--3--5-
D|-----------------------------------5-
A|-------------------------------------
E|-------------------------------------


Solo del final (sobre riff principal)


e|-3-3-------3-3----------3-3--------------------------------------
B|-3-3-------3-3--6-------3-3--6------3---5-3------5-3-------------
G|-----5-3h4------5ba----------5ba----3b--5-3b-----5-3b------------
D|----------------------------------5------------5------5--5-5-5-5-
A|---------------------------------------------------------5-5-5-5-
E|---------------------------------------------------------3-3-3-3-
Suggest correction
Give kudos to tab author, rate the tab!
1 2 3 4 5
comments
print report bad tab
guest
You may want to rate the tab now too:
select rating
Wanna post a correction for this tab? Suggest correction