Oops, an error
Loading. Please wait.

Una Señal Tab

version 2
version 2

Whole song

7 views 1 this week
no commentswrite comment
1 2 3 4 5
3 more votes to show rating
add to favorites
launch autoscroll
font size
0
reset
how to read this tab
guitar tuner
Autoscroll
slow
fast
+/-
esc
set tempo
stop
Help us to improve Ultimate-Guitar.com Take our survey!
×
ACORDES:> LAm SOL DO SOL7 SOL# RE

LAm                 SOL#
Nesecito una señal, o algo que me diga
LAm                      RE9
cual es el sentido en este mundo??
LAm
Que es verdad, que es mentira
SOL#
que es el bien , que es el mal
LAm                               RE9
y cual de todas es la mejor realidad???
SOL                      SOL7
y donde estoy parado ahora......

Intermedio:(LAm SOL# SOL)

Solo 1

E---------------------------------------------------------------------
B---------------------------------------------------------------------
G--7b-5---------------5-7-9r7-5-7-5~-----4/5-7-5-4-7b5-77-----5-------
D-------7~--------5-7----------------5/7------------------5h7---------
A-----------0-3/7-----------------------------------------------------
E---------------------------------------------------------------------

E--5-5----------------------------------------------------------------
B--5-5-----8r5-8------------------------------------------------------
G--5-5-7b--------5-------------------------5---5-7b5-7/9--------------
D------------------7------------------5~-7---7------------------------
A---------------------0-3-3/7-5/3-5/7---------------------------------
E---------------------------------------------------------------------

LAm                       SOL#
Cuando esta luz se apague que sentimientos habra
SOL                            RE9
y si donde voy a ir me ba a gustar.
LAm                               SOL#
Si esta bien estimilarse para viviiir en otro lugar
SOL                               RE9
si hay justicia quien la tiene y donde esta????
SOL                    SOL7
y donde estoy parado ahora ?
LAm
donde estara el camino??
DO               SOL           SOL7
Tengo miedo de resbalaaaaaaaaar.

Solo 2
E-------------10-10r---------------------8--12-15r12------------------
B-12h13x6---8--------8~--10-13-12-10-----8-----------13~-13p12--------
G------------------------------------9~--9--------------------12------
D---------------------------------------------------------------12~---
A---------------------------------------------------------------------
E---------------------------------------------------------------------

------------------------------------------------------
------------------------------------------------------
---12-14b12 14-16~------------------------------------
------------------------------------------------------
------------------------------------------------------
------------------------------------------------------
DO
y donde estoy parado ahora ?
REm
donde estara el camino??
FA               DO           DO7
Tengo miedo de resbalaaaaaaaaar.
Suggest correction
Give kudos to tab author, rate the tab!
1 2 3 4 5
comments
print report bad tab
guest
You may want to rate the tab now too:
select rating
Wanna post a correction for this tab? Suggest correction