Oops, an error
Loading. Please wait.

Una Señal Tab

version 3
version 3

Whole song

7 views 1 this week
no commentswrite comment
1 2 3 4 5
3 more votes to show rating
add to favorites
launch autoscroll
font size
0
reset
how to read this tab
guitar tuner
Autoscroll
slow
fast
+/-
esc
set tempo
stop
Help us to improve Ultimate-Guitar.com Take our survey!
×
  Primer solo (0:55)
e|-------------------------------------------------------------
B|-------------------------------------------------------------
G|-7ba-5--------------5-7-7b-7ba-5-7-5~----------4-----4-7-7ba-
D|-------7~------5-7-------------------------5-7---5-7---------
A|------------s7--------------------------s7-------------------
E|-------------------------------------------------------------

e|-------------------------------------------------
B|----------------------8--5--------8ba-5-8--------
G|-5--7-7------5-5~-----5-----7b------------5b-----
D|---------5s7----------7----------------------7~--
A|-------------------------------------------------
E|-------------------------------------------------

e|------------------------------------------------
B|------------------------------------------------
G|------------------------------------5-7ba-5-7b--
D|-------------------------5------5-7-------------
A|---------5--5ba-3--5-5s7----5s7-----------------
E|-3s5--8-----------------------------------------


  Segundo solo (2:43)

e|----------------------------------------------
B|-----------------15~-15ba---------------------
G|-16babababa-12~-----------12~---16-17-16p14---
D|--------------------------------------------14
A|----------------------------------------------
E|----------------------------------------------

e|------------------------------------------------------
B|-17-18--20p18p17---------------------15-15ba----------
G|-17--------------17---17p16------------------12-16~~~-
D|-17-------------------------17------------------------
A|-------------------------------17---------------------
E|------------------------------------------------------
Suggest correction
Give kudos to tab author, rate the tab!
1 2 3 4 5
comments
print report bad tab
guest
You may want to rate the tab now too:
select rating
Wanna post a correction for this tab? Suggest correction