Oops, an error
Loading. Please wait.

A Mi Que Me Quedó Tab

40 views 3 this week
no commentswrite comment
1 2 3 4 5
3 more votes to show rating
add to favorites
launch autoscroll
font size
0
reset
how to read this tab
guitar tuner
Autoscroll
slow
fast
+/-
esc
set tempo
stop
Help us to improve Ultimate-Guitar.com Take our survey!
×
A mi que me quedo
los invasores de nuevo leon
uno de los mejores grupos de musica grupera y norteña

e|-------------------------------------------------------------------|
b|-------------------------------------------------------------------|
G|--7-6--7-6--7-6-6p7-7-----4-2--4-2--4-2-2p4-4----------------------|
D|-------------------------------------------------------------------|
A|-------------------------------------------------------------------|
E|-------------------------------------------------------------------|

e|--3-2--3-2--3-2-2p3-3-----7-5--7-5-9-7-5--------2-2--2-2-----------|
b|------------------------------------------------3-3--3-3-----------
G|-------------------------------------------------------------------|
D|-------------------------------------------------------------------|
A|-------------------------------------------------------------------|
E|-------------------------------------------------------------------|

un pekeño intro de transcripcion de acordeon a guitarra :)
ahora los acordes

D
Cuanto valgo para ti,
Bm
no se que contestarás
G
estas llena de mentiras
A
Que te escurre vanidad


D
No se acabará mi vida,
Bm
no me cortaré las venas
G
No llores no hagas escenas
A
vete si es lo que deseas


D                                  Bm
Y que gané mil noche de amor perdidas
                         G                               A
Miles de caricias muertas, miles siempre curando una herida


    D                              Bm
Y a mi que me quedó de tu maldito amor
                       G                         A
Solo constantes desilusiones mutilaste mis pasiones
   D                                    Bm
Te di lo que tu sabes no hallarás con nadie
                         G
Todo mi amor, fui buen amante
                 A                     D
y si un día regresas será demasiado tarde


aki se repite la cancion todo igual
el puente igual al intro

e|-------------------------------------------------------------------|
b|-------------------------------------------------------------------|
G|--7-6--7-6--7-6-6p7-7-----4-2--4-2--4-2-2p4-4----------------------|
D|-------------------------------------------------------------------|
A|-------------------------------------------------------------------|
E|-------------------------------------------------------------------|

e|--3-2--3-2--3-2-2p3-3-----7-5--7-5-9-7-5--------2-2--2-2-----------|
b|------------------------------------------------3-3--3-3-----------
G|-------------------------------------------------------------------|
D|-------------------------------------------------------------------|
A|-------------------------------------------------------------------|
E|-------------------------------------------------------------------|

o en acordes D-Bm-G-A con el tiempo

D
No se acabará mi vida,
Bm
no me cortaré las venas
G
No llores no hagas escenas
A
vete si es lo que deseas


D                                  Bm
Y que gané mil noche de amor perdidas
                         G                               A
Miles de caricias muertas, miles siempre curando una herida


    D                              Bm
Y a mi que me quedó de tu maldito amor
                       G                         A
Solo constantes desilusiones mutilaste mis pasiones
   D                                    Bm
Te di lo que tu sabes no hallarás con nadie
                         G
Todo mi amor, fui buen amante
                 A                     D
y si un día regresas será demasiado tarde


poes ya esta es toda la cancion
buena pa cuando estas dolido
Suggest correction
Give kudos to tab author, rate the tab!
1 2 3 4 5
comments
print report bad tab
guest
You may want to rate the tab now too:
select rating
Wanna post a correction for this tab? Suggest correction