Oops, an error
Loading. Please wait.

Sabor De Olvido tab

16 views 1 this week
no commentswrite comment
1 2 3 4 5
3 more votes to show rating
add to favorites
×
Save as Personal and add changes to this tab that will be seen only by you. Learn more ›
×
You can save this tab as Personal to edit and correct it or add notes. All changes will be seen only by you. Learn more »
launch autoscroll
font size
0
reset
how to read this tab
guitar tuner
edit
Autoscroll
slow
fast
+/-
esc
set tempo
stop

6|---------------------------------------------------------
5|---------------------------------------------------------
4|---------------------------------------------------------
3|---------------------------------------------------------
2|-12-13-14-15-10-15-10-15-10-15-10-15-13-12-10-13--13-12--
1|-10-12-13-14-8--14-8--14-8--14-8--14-12-10-8--12--12-10--


6|------------------------------------------------------------
5|------------------------------------------------------------
4|------------------------------------------------------------
3|------------------------------------------------------------
2|-12-13-14-15-10-15-10-15-10-15-10-13----8-13-12-10-10-10-8--
1|-10-12-13-14-8--14-8--14-8--14-8--12----7-12-10-8--8--8--7--

Tienes que conocer un poco la canción para darte una idea y
que puedas matizar las notas,igual y sustituyes una
o alargas otra, etc. Eso sería la melodía básica

Esta sería la canción.


   SOL    RE7         SOL
Me va a doler el corazón
           RE7         SOL
el día que sin haber razón
RE#7       RE7
de mí te alejes.

Mi llanto no podré ocultar

yo sé que tengo que llorar
            SOL
cuando me dejes.
               RE7         SOL
Tu ausencia empiezo a presentir
           RE7            SOL
yo sé que pronto te has de ir
SOL7                               DO
mis labios tienen ya el sabor de olvido
          RE7         SOL
Sin ti ya no quiero vivir
    MIm             LAm
de nada sirve mi existir
          RE7        SOL
si ya no tengo tu cariño
          RE7
En qué lugar vas a dejar

mi amor sin tu calor;
         SOL
en el olvido.
         RE7
En qué lugar voy a morir,
         DO/RE7           SOL
pobre de mí,    sin tu cariño.

               RE7         SOL
Tu ausencia empiezo a presentir
           RE7            SOL
yo sé que pronto te has de ir
SOL7                               DO
mis labios tienen ya el sabor de olvido
          RE7         SOL
Sin ti ya no quiero vivir
    MIm             LAm
de nada sirve mi existir
          RE7        SOL
si ya no tengo tu cariño
          RE7
En qué lugar vas a dejar

mi amor sin tu calor;
         SOL
en el olvido.
         RE7
En qué lugar voy a morir,
         DO/RE7           SOL
pobre de mí,    sin tu cariño.


Los tonos empleados pueden ser marcados normalmente o
con cejilla y media cejilla de la siguiente forma

SOL
|---|---|---|---|---|---|---|---|---|---|6
|---|---|---|---|---|-3-|---|---|---|---|5
|---|---|---|---|---|-3-|---|---|---|---|4
|---|---|---|---|---|---|-2-|---|---|---|3
|---|---|---|---|---|---|---|-1-|---|---|2
|---|---|---|---|---|---|---|-1-|---|---|1


RE 7
|---|---|---|---|---|-3-|---|---|---|---|6
|---|---|---|---|---|-3-|---|---|---|---|5
|---|---|---|---|---|---|-2-|---|---|---|4
|---|---|---|---|---|-4-|---|---|---|---|3
|---|---|---|---|---|---|---|-1-|---|---|2
|---|---|---|---|---|---|---|-0-|---|---|1

RE#7
|---|---|---|---|-3-|---|---|---|---|---|6
|---|---|---|---|-3-|---|---|---|---|---|5
|---|---|---|---|---|-2-|---|---|---|---|4
|---|---|---|---|-4-|---|---|---|---|---|3
|---|---|---|---|---|---|-1-|---|---|---|2
|---|---|---|---|---|---|-0-|---|---|---|1

DO
|---|---|---|---|---|---|---|-3-|---|---|6
|---|---|---|---|---|---|---|-3-|---|---|5
|---|---|---|---|---|---|---|---|-2-|---|4
|---|---|---|---|---|---|---|---|---|---|3
|---|---|---|---|---|---|---|---|---|-1-|2
|---|---|---|---|---|---|---|---|---|---|1

MIm
|---|---|---|-1-|---|---|---|---|---|---|6
|---|---|---|-1-|---|---|---|---|---|---|5
|---|-3-|---|-1-|---|---|---|---|---|---|4
|---|-4-|---|-1-|---|---|---|---|---|---|3
|---|---|-2-|-1-|---|---|---|---|---|---|2
|---|---|---|-1-|---|---|---|---|---|---|1

LAm
|---|---|---|---|---|-1-|---|---|---|---|6
|---|---|---|-3-|---|-1-|---|---|---|---|5
|---|---|---|-4-|---|-1-|---|---|---|---|4
|---|---|---|---|---|-1-|---|---|---|---|3
|---|---|---|---|---|-1-|---|---|---|---|2
|---|---|---|---|---|-1-|---|---|---|---|1

            
            
Suggest correction
Creating personal tab
Creating personal tab
You can edit any tab online and save it as your Personal.

You can edit, replace or remove any tab part or add personal notes – all changes will be seen only by you.

Personal tabs can be accessed anytime from any device, even offline.
Learn more »
Give kudos to tab author, rate the tab!
1 2 3 4 5
comments
print report bad tab
guest
Wanna post a correction for this tab? Suggest correction