Oops, an error
Loading. Please wait.

El Anillo Del Capitán Beto bass

68 views 3 this week
no commentswrite comment
1 2 3 4 5
3 more votes to show rating
add to favorites
×
Save as Personal and add changes to this tab that will be seen only by you. Learn more ›
×
You can save this tab as Personal to edit and correct it or add notes. All changes will be seen only by you. Learn more »
launch autoscroll
font size
0
reset
guitar tuner
edit
Autoscroll
slow
fast
+/-
esc
set tempo
stop
       ?Ahi va el capitan beto por el espacio?
G|-----------4-----------4-4-4-4-4----------------------------
D|---------------0h2-----------------------------------7-7-7--
A|-14\-2---2---------2---------------------------7------------
E|---------------------------------0-5----5--5-----5---------0

    ?con su nave de fibra hecha en Haedo?
G|-------4-----------4-4-4-4-4---------------------------
D|-----------0h2-----------------------------------------
A|-2---2---------2---------------------------5h7------2-3
E|-----------------------------0-5----5--5------5---5----

    ?ayer colectivero, hoy amo entre los amos de aire?
G|----6-6--6---------4-------------6-6--6----------------9-11
D|-------------4---4----4---4---------------4--6-7--9-11-----
A|-4----------4---------------4--4---------4-----------------
E|-----------------------------------------------------------

G|--------------------------------
D|-12--12-12--12-12--12-12--12----
A|--------------------------------
E|--------------------------------

    ?la lleva quince años en su periplo?
G|-------4-----------4-4-4-4-4---------------------------
D|-----------0h2---------------------------7----------7--
A|-2---2---------2---------------------------5h7---------
E|-----------------------------0-5----5--5------5---5---0

     ?su equipo es tan precario como su detino?
G|-------4-----------4-4-4-4-4----------------------------
D|-----------0h2------------------------7--7--------------
A|-2---2---------2---------------------------5h7-------2-3
E|-----------------------------0-5----5----------5---5----

    ?sin embargo un anillo extraño auyenta sus peligros en el cosmos?
G|-------------------4-------------6-6--6------------------11
D|-------------4---4----4---4---------------4--6-7--9-11-----
A|-4--4-4--4--4---------------4--4---------4-----------------
E|-----------------------------------------------------------

                                               (4 veces)
G|-------------------------------------|-----8-9-6|8----------|---
D|-12--12-12--12-12--12-12--12---12----|---7---------9|11-7|9-|-2-
A|-------------------------------------|-7--------------------|---
E|-------------------------------------|----------------------|---

       ?ahi va el capitan beto por el espacio?
G|-------4-----------4-4-4-4-4---------------------------
D|-----------0h2------------------------7--7----------7--
A|-2---2---------2---------------------------5h7---------
E|-----------------------------0-5----5---------5---5---0

    ?la foto de carlitos sobre el comando?
G|-------4-----------4-4-4-4-4---------------------------
D|-----------0h2------------------------7--7-------------
A|-2---2---------2---------------------------5h7------2-3
E|-----------------------------0-5----5---------5---5----

    ?y un banderín de river plate y la triste estampita de un santo?
G|-------6-----------4-------------6-6--6------------------11
D|-------------4---4----4---4---------------4--6-7--9-11-----
A|-4-4-4------4---------------4--4---------4-----------------
E|-----------------------------------------------------------

G|--------------------------------
D|-12--12-12--12-12--12-12--12----
A|--------------------------------
E|--------------------------------

        ?¿donde esta el lugar?   ?al que todos llaman cielo??      ?si nadie?
G|--------------------------------------------------------------------------
D|----------------------------------------------------7---------------------
A|-9---------------------------------------8----10-------0------------------
E|-------------7---------10-9-----------------------------------------------

?viene hasta aquí?       ?a cebarme unos amargos como en mi viejo hogar?
G|----------------------------------------------------------------------
D|-------------------------------------------------------------8--------
A|--------------------------------------------2----4----6---------6-----
E|-7---------10-9--------------1----3----5-----------------------------0

     ?por que habre venido hasta aquí, si no puedo mas de soledad?
G|------------------------------------------------------------
D|-------------------------------4--4-2-------------------4---
A|-2-2-2-2-2-2-2-2-4----2---------------5-4-2----4------------
E|---------------------------2------------------------2-------

?ya no puedo mas de soledad?
G|---------------------------------------------
D|-4-2----------6--6--7------------------------
A|-----5-4-2---------------------0-------------
E|---------------------------------------------

    ?su anillo lo inmuniza de los peligros?
G|-------4-----------4-4-4-4-4---------------------------
D|-----------0h2------------------------7--7----------7--
A|-2---2---------2---------------------------5h7---------
E|-----------------------------0-5----5---------5---5---0

     ?pero no lo protege de la tristeza?
G|-------4--------------4--4------------------------------
D|-----------0h2------------------------7--7--------------
A|-2---2---------2---2-----------------------5h7-------2-3
E|-----------------------------0-5----5----------5---5----

    ?surcando la galaxia del hombre,ahi va el capitan beto,el?
G|----6-6--6---------4-------------6-6--6------------------11
D|-------------4---4----4---4---------------4--6-7--9-11-----
A|-4----------4---------------4--4---------4-----------------
E|-----------------------------------------------------------
?errante?
G|-------------14--------11-------
D|-12--12-12-----12-12-------12---
A|--------------------------------
E|--------------------------------

         ?¿donde habra una ciudad en la que alguien silbe un tango??  ?¿donde?
G|11-------------------------------------------------------------------------
D|-------------------------------------------------------7-------------------
A|----9---------------------------------------8----10-------0----------------
E|----------------7------------9---------------------------------------------

?estan?  ?donde estan los camiones de basura mi vieja y el café??
G|----------------------------------------------------------------------
D|-------------------------------------------------------------8--------
A|--------------------------------------------2----4----6---------6-----
E|-7---------10-9--------------1----3----5-----------------------------0

         ?si esto sigue asi como asi ni una triste sombra quedara?
G|------------------------------------------------------------
D|-------------------------------4--4-2-------------------4---
A|-2-2-2-2-2-2-2-2-4----2---------------5-4-2----4------------
E|---------------------------2------------------------2-------

?ni una triste sombra quedara?
G|----------------------------------------------------
D|-4-2----------6--6--7-------------------------------
A|-----5-4-2----------------------------------14\--9\-
E|----------------------------------------------------

    ?ahí va el capitan beto por el espacio??
G|-------4-----------4-4-4-4-4---------------------------
D|-----------0h2------------------------7--7----------7--
A|-2---2---------2---------------------------5h7---------
E|-----------------------------0-5----5---------5---5---0

     ?regando los malvones de su cabina?
G|-------4--------------4--4------------------------------
D|-----------0h2------------------------7--7--------------
A|-2---2---------2---2-----------------------5h7-------2-3
E|-----------------------------0-5----5----------5---5----

    ?sin brujula y sin radio jamas podra volver a la Tierra?
G|-------------------4-------------6-6--6------------------11
D|-------------4--------4---4---------------4--6-7--9-11-----
A|-4---4--4---4---------------4--4---------4-----------------
E|-----------------------------------------------------------

                                        (4 veces)
G|------------------------------|-----8-9-6|8----------|---
D|-12-12-12--12---12-12--12-----|---7---------9|11-7|9-|-2-
A|------------------------------|-7--------------------|---
E|------------------------------|----------------------|---

    ?tardaron muchos años hasta encontrarlo?
G|-------4-----------4-4-4-4-4---------------------------
D|-----------0h2------------------------7--7----------7--
A|-2---2---------2---------------------------5h7---------
E|-----------------------------0-5----5---------5---5---0

     ?el anillo de beto llevaba inscripto un signo?         ?del alma?
G|-------4--------------4--4-------------------------------------8h9----
D|-----------0h2--------------------------------------------------------
A|-2---2---------2---2---------------------2---4------------------------
E|-----------------------------0-5--------------------------------------


G|----------9-9-9-9-?-------------------------------------------------------
D|---------------------------------------2----------------------------------
A|-7-7-7-7-?----------------2----4--5----------2----------------------------
E|--------------------------------------------------------------------------

    /: slide up (?arrastrar? hacia adelante)
    \: slide down (?arrastrar hacia atrás)
    h: hammer on (ligado)
 x|x : tocar las dos notas consecutivamente rápido por Ej. 6|8


El anillo del capitan beto (Spinetta)

Ahí va el Capitán Beto por el espacio,
con su nave de fibra hecha en Haedo.
Ayer colectivero,
hoy amo entre los amos del aire.

Ya lleva quince años en su periplo;
su equipo es tan precario como su destino.
Sin embargo un anillo extraño
ahuyenta sus peligros en el cosmos.

Ahí va el Capitán Beto por el espacio,
la foto de Carlitos sobre el comando
y un banderín de River Plate
y la triste estampita de un santo.

¿Dónde está el lugar al que todos llaman cielo?
Si nadie viene hasta aquí
a cebarme unos amargos como en mi viejo umbral
¿Por qué habré venido hasta aquí, si no puedo más de soledad?
Ya no puedo más de soledad.

Su anillo lo inmuniza contra el peligro,
pero no lo proteje de la tristeza.
Surcando la galaxia del Hombre,
ahí va el Capitán Beto, el errante.

¿Dónde habrá una ciudad en la que alguien silbe un tango?
¿Dónde están, dónde están
los camiones de basura, mi vieja y el café?
Si esto sigue así como así, ni una triste sombra quedará,
ni una triste sombra quedará.

Ahí va el Capitán Beto por el espacio,
regando los malvones de su cabina.
Sín brújula y sin radio,
jamás podrá volver a la Tierra.

Tardaron muchos años hasta encontrarlo.
El anillo de Beto llevaba inscripto un signo del alma.

            
            
Suggest correction
Creating personal tab
Creating personal tab
You can edit any tab online and save it as your Personal.

You can edit, replace or remove any tab part or add personal notes – all changes will be seen only by you.

Personal tabs can be accessed anytime from any device, even offline.
Learn more »
Give kudos to tab author, rate the tab!
1 2 3 4 5
comments
print report bad tab
guest
Wanna post a correction for this tab? Suggest correction