Oops, an error
Loading. Please wait.

Encadenado Al Ánima bass

86 views 1 this week
no commentswrite comment
1 2 3 4 5
3 more votes to show rating
add to favorites
×
Save as Personal and add changes to this tab that will be seen only by you. Learn more ›
×
You can save this tab as Personal to edit and correct it or add notes. All changes will be seen only by you. Learn more »
launch autoscroll
font size
0
reset
guitar tuner
edit
Autoscroll
slow
fast
+/-
esc
set tempo
stop
Esta es la primera parte del tema.

Intro:
                                (3 veces)
G|-------------6--------------------6--6--5--4--5------------------------|
D|----------------------------5--2---------------------------------------|
A|----3-----7--------2-----------------------------2----------4-----2----|
E|-0-------------------------------------------------------------------5-|

1:04
                 (2 veces)
G|----------------6-7-------------------------|
D|-5-5-5---------7----------------7-----------|
A|----6-5p3--2--7----7--9--9h10---------------|
E|-----------------------------6--------------|

G|----------------6-7-------------------------|
D|-5-5-5---------7----------------------------|
A|----6-5p3--2--7----7--9--9h10---3-----------|
E|-----------------------------6--------------|

                                               1:32
                                                     (2 veces)
G|----------------6-7-------------------------|-7----5---4----3-2--|
D|-5-5-5---------7----------------7-----------|-----5-4----0-4-----|
A|----6-5p3--2--7----7--9--9h10---------------|----6---------------|
E|-----------------------------6--------------|--------------------|


G|-4------------------7|7|7|7--9-----
D|-2---------------------------9-----
A|-----------------------------7-----
E|-------4-h5--7---------------------

G|7|7|7|7--9--9-7----7--7--9--9-7---7-h9---------
D|----------------9---------------9--------------
A|----------------------------------------2------
E|-----------------------------------------------

                     (4 veces)
 ?Si?    ?el viejo portal del cielo?
G|---------------------------------------------------|
D|---------------------------------------------------|
A|-2---2-2-2-----------------------------------------|
E|-------------4---4-4-4---5-5-5-5--3-3-3-3--0-2-0-5-|

?puede?      ?se niega?       ?y se quema?         ?en las puertas de una?
G|---------------------7--------------4--4-2-----------------------------------
D|-----------5-------7--------------4--------4-2----------7--7-7---7-6--6--6---
A|2-------------5--5-------1---1-2---------------5--4-----------0-------------0
E|-----------------------------------------------------------------------------

?vista?     ?ohooo?
G|----------------7----------------------------------------------------
D|------------5-----5--------------------------------------------------
A|-5--5--5--0------------3--3--3-3--4--4--4-4--2--2--2-2--1--1--1-1---0
E|---------------------3-----------------------------------------------

2:56
G|------------------------------------------------------------
D|-----7h9-7----------7h9-7----------7h9-7----------7h9-7-----
A|-5-5--------3---5-5--------4---5-5--------2---5-5--------1--
E|------------------------------------------------------------

                  (2 veces)
G|---------------------------------------------|
D|-----7h9-7-----------------7h9-7-/14---------|
A|-5-5-------------------5-5-------------------|
E|--------------3--4--5----------------3--4--5-|

?planetas giran?              ?asi como tu recuerdo vive en ellos?
G|-7-------7--------------------------------------------12-12-12-----
D|----7--7--------------------------------------------------------12-
A|----------------------------4---5---6---7---9~--10~----------------
E|------------3--3-3-3-3-3-3-3---------------------------------------


G|-12|11-12p11-10-11p9-7-9p7-6-
D|-----------------------------
A|-----------------------------
E|-----------------------------


             ?sin que puedas correr alli?
G|----------------------------------------------
D|----------------------------------------------
A|-2---2-2-2------------------------------------
E|-------------4---4-4-4---5-5-5-5--3-3-3-3-----

             ?sin que puedas correr alli?
G|----------------------------------------------------
D|----------------------------------------------------
A|-2---2-2-2-------------------------------------0-7--
E|-------------4---4-4-4---5-5-5-5--3-3-3-3--0-2-----5


G|------------------------6---9------
D|-----9-8-7-6--0-5-0-8-0---0--------
A|---9-------------------------------
E|-7---------------------------------

?las ventiscas? ?ahuyentan el humo? ?muñecos que?    ?alba roja?
G|-------------------------------------------------------7-7-7----------5---
D|------------------7---7-7-7-5------------------7-7--5---------3---3-3-----
A|-2-----0-------------0-0-------5-5-5-5-5-5--0-----------------------------
E|-------------3------------------------------------------------------------

4:12
                   ?y ardiente de locura?
G|---------------------------------------7-----------7------
D|-----------------7--7-------6--6--0-5------------5---5----
A|-2---2--2--2-0----------------------------5--5-7-------7-5
E|------------------------4---------------------------------

G|------------------------------------------------------------------
D|-7---7--7--0-8---8--8-------------14--12-14--12--14--12--14--12-14
A|-----------------------0-5--5--5----------------------------------
E|------------------------------------------------------------------

4:30                                            (20 veces)
G|----------------------------------------------|---------|
D|-15-------------------------------------------|---------|
A|-----15--13--10--8----------------------------|---------|
E|------------------10-8--6-----------------12\-|-5-5-3-0-|

             ?en forma alucinatoria?
G|-------------------------------------------------------------
D|-------------------------------------------------------------
A|-5-5-5-5-5-5-5-5-5-5-5-5-5-5-5-5-4-4-4-4-4-4-4-4-4---4--4-4-4
E|--------------------------------------------------0-4--------

             ?en forma alucinatoria?
G|-------------------------------------------------------------
D|-------------------------------------------------------------
A|-5-5-5-5-5-5-5-5-5-5-5-5-5-5-5-5-4-4-4-4-4-4-4-4-4---4--4-4-4
E|--------------------------------------------------0-4--------

                          (15 veces) ?moverse      (7 veces)
G|-----------------------|---------|--------------|---------|---------
D|-----------------------|---------|--------------|---------|---------
A|-5-5-5-5-5-5-5---------|---------|-3-/----------|---------|---------
E|--------------5--5-3-0-|-5-5-3-0-|-----5--5-3-0-|-5-5-3-0-|-5-3-0-3-

5:22
            (4 veces)
G|-------------------------------|
D|-------------------------------|
A|------3-0-7----9h10-9p7|9-7-9--|
E|-0-3-0------8----------------8-|

5:33
G|----------------------------------------------------------------------------
D|-------------------7-11-9-7--9h10-9p7|9-7-9-------7-11-9-7--9h10-9p7|9-7-9--
A|-9h10-9p7|9-7-9---7------------------------8-----7------------------------8-
E|---------------8-9----------------------------8-9---------------------------

G|-----------------------------------------------------------------------------
D|-----7-11-9-7--9h10-9p7|9-7-7---9h10-9p7|9-7-7---9h10-9p7|9-7-7--------------
A|----7------------------------8----------------8----------------8-10-0-----3--
E|-8-9-------------------------------------------------------------------------

5:48
          (3 veces)
G|--------------------------|-------------
D|--------------------------|-------------
A|-3-3-1--3-3-1-3--1---3-3-1|-3-3-1-3-1--0
E|------------------3-3-----|------3------

6:00
G|----------------------------------------------------------------------------
D|-7-5-7-7-5-7-7-5-7-7-5-7--5-------------------------------------------------
A|----7-----7-----7----------7-7-0-0---------------------9-9-10-10-11-11-12-12
E|----------------------------------9-9-10-10-11-11-12-12---------------------

G|-------------------------------------------
D|-11-11-12-12-13-13-14-0--------------------
A|-----------------------9-9-10-10-11-11-12-0
E|-------------------------------------------
                                                (11 veces)    ?moverse?
G|---------------------------------------------|---------|--------5----
D|---------------------------------------------|---------|--------3----
A|----------------------9-9-10-10-11-11-12-9-7-|---------|-------------
E|-9-9-10-10-11-11-12-12-----------------------|-5-5-3-0-|-5-5-3-------

 ?no!?
G|-------------------------------------------------7-7-7-7-7--
D|-7-7-7-7-7-7-7-7-6-6-6-6-6-6-6-6-5-5-5-5-5-5-5--------------
A|-----------------------------------------------5------------
E|------------------------------------------------------------

6:26
G|---------------------------------------
D|--------------7-5----------------------
A|-----------------7-6-5-----------------
E|-8--10--7--8----------8-5--8--10--7--8-

G|-----------------------------------------------------------------------------
D|-14-14-14-14-/16-16-16-16-/17-17-17-17-/19-19-19-19-------19-19----19--19----
A|-----------------------------------------------------17/19-------19--19--19\-
E|-----------------------------------------------------------------------------

?produciendo ruidos?  ?espalda?
G|----7-----------------------------------------------------------
D|-7-----3------------7------------15-14-15-14-15-14-12-10-10-----
A|-5-----1--1--1--0-------7----8------------------------------10\-
E|------------------------0----------------------------------8----

6:47
   -          -           -          -
G|------------------------------9----9-9-9-9-7--
D|--------------------------------------------9-
A|-3-3-3--3---5--5--5---5-7--7------------------
E|----------------------------------------------

   -         -         -        -
?La noche despide su manera arrogante?
G|-----5--5-----------------9-----7---9-9-
D|-----------4--4--4------9-----9---------
A|-3-------------------7------------------
E|----------------------------------------

   -        -         -            -
     ?De mecerse donde quiera?
G|------5--------------------------9-7---7-7-
D|----------4--4--4---------------9----------
A|-3--3---------------7--7--10-10------------
E|-------------------------------------------

   -        -         -         -
    ?Y las ropas de los sirvientes?
G|------5--------------------------------9--
D|-5--------4--4--4-----------9----9-9-9--9-
A|-3--3---------------7---7------7----------
E|------------------------------------------

   -       -        -
        ?Caminan por la casa?
G|-----5----------------------------------------------------
D|-5-------4--4----------14----12---------------------------
A|-3----------------7----------------7----------------------
E|----------------------------------------------------------

    /: slide up (?arrastrar? hacia adelante)
    \: slide down (?arrastrar hacia atrás)
    p: pull off (ligado hacia atras)
    h: hammer on (ligado)
x |x : tocar las dos notas consecutivamente rápido por Ej. 7|9

Los guiones en la parte final marcan el comienzo de cada compas.
En el resto del tema no los pude poner porque son tiempos irregulares y se
complicaba mucho.
Escuchen atento el tema para guiarse bien con la tablatura.


Encadenado al anima_1ra parte (Invisible)

Sí, el viejo portal del cielo
Sí, el viejo portal del cielo
Puede enfriar los cuerpos de hoy y ayer
Se niega el recuerdo por sano y se quema
En las puertas de una ciudad
Que aulla sin ser vista

Los planetas giran sin saberlo
Así como tu recuerdo vive en ellos
Sin que puedas correr allí
Sin que puedas correr allí

Las ventiscas en sombras ahuyentan el humo
De unos muñecos que se queman
En el alba roja y ardiente de la locura

Las caras que asoman la ventana
Quieren cristalizarse en mi pensamiento
En forma alucinatoria
En forma alucinatoria
Como si los muebles pudieran hablarme de ellas
Sin moverse
Produciendo ruidos incomprensibles a mi espalda

La noche despide
Su manera arrogante
De mecerse donde quiera
Y las ropas de los sirvientes
Caminan por la casa

            
            
Suggest correction
Creating personal tab
Creating personal tab
You can edit any tab online and save it as your Personal.

You can edit, replace or remove any tab part or add personal notes – all changes will be seen only by you.

Personal tabs can be accessed anytime from any device, even offline.
Learn more »
Give kudos to tab author, rate the tab!
1 2 3 4 5
comments
print report bad tab
guest
Wanna post a correction for this tab? Suggest correction