Oops, an error
Loading. Please wait.

Oso Del Sueño bass

74 views 1 this week
no commentswrite comment
1 2 3 4 5
3 more votes to show rating
add to favorites
×
Save as Personal and add changes to this tab that will be seen only by you. Learn more ›
×
You can save this tab as Personal to edit and correct it or add notes. All changes will be seen only by you. Learn more »
launch autoscroll
font size
0
reset
guitar tuner
edit
Autoscroll
slow
fast
+/-
esc
set tempo
stop
                         (7 veces)
G|-------------7|---------------------------7|--------------
D|-----9-----7--|-------------------9-----7--|--------------
A|---7---5------|-------------7---7---5------|--------------
E|-7------------|0--0-3--3--5---7------------|0--0-3--3--5--

  ?abre mis ojos?               ?abre mis ojos?
G|-------------------------------------------------14-14-------------
D|----------------------------12-14-14-16-16-17-17--------17-16-14\--
A|----7-8--9--10--12--14--15-----------------------------------------
E|-8-----------------------------------------------------------------

                                       (2 veces)
 ?hola?               ?hola?         ?es lo que dijiste cuando?
G|--------------------|-------------------11-12---------9---------|
D|--------------------|-----------------14-------------9-7-9------|
A|-9--12--------------|9--12----------14-------10-----------------|
E|-7--10--------------|7--10--------12-------------12-------7-7-7-|

 ?hola?              ?señor?             ?señor sol?
G|-------------------------------------------------------------
D|-------------------------------------------------9-----------
A|-9--12---------------9--12---------------9--12---7-----------
E|-7--10---------------7--10---------------7--10---------------

Repite todo lo de arriba. Despues:

                        (12 veces)
?hola?               ?señor?             ?señor sol?
G|---------------------------------------------------------------|
D|-------------------------------------------------9-------------|
A|-9--12---------------9--12---------------9--12---7-------------|
E|-7--10---------------7--10---------------7--10-----------------|

\: slide down (?arrastrar hacia atrás)

Oso del sueño (Spinetta)
Oso del sueño,
suave dibujo,
ven a mi casa,
en la ciudad descalza...

Rompe los cercos,
que te maniatan,
todo está bien,
es solamente tuya...

Abre mis ojos,
abre mis ojos.

Hola, hola.
Es lo que dijiste,
cuando me viste.

Hola, es lo que dijiste,
cuando me viste.

Hola, señor, señor sol...

Abre mis ojos,
abre mi sol,
abre mi piel,
la tuya...

Dentro del mío,
sangra la fruta,
luz de la lluvia,
sobre la primavera...

Luz de la lluvia,
abre mis ojos.

Hola, hola...
Es lo que dijiste,
cuando me viste.

Hola, es lo que dijiste,
cuando me viste.

Hola, señor, señor sol...
Hola, señor, señor sol...

            
            
Suggest correction
Creating personal tab
Creating personal tab
You can edit any tab online and save it as your Personal.

You can edit, replace or remove any tab part or add personal notes – all changes will be seen only by you.

Personal tabs can be accessed anytime from any device, even offline.
Learn more »
Give kudos to tab author, rate the tab!
1 2 3 4 5
comments
print report bad tab
guest
Wanna post a correction for this tab? Suggest correction