Oops, an error
Loading. Please wait.

Suspensión bass

68 views 1 this week
no commentswrite comment
1 2 3 4 5
3 more votes to show rating
add to favorites
×
Save as Personal and add changes to this tab that will be seen only by you. Learn more ›
×
You can save this tab as Personal to edit and correct it or add notes. All changes will be seen only by you. Learn more »
launch autoscroll
font size
0
reset
guitar tuner
edit
Autoscroll
slow
fast
+/-
esc
set tempo
stop
Esta es la VERSION CORREGIDA del tema
               4 veces
G|---------------------------------------|----|
D|---------------------------------------|----|
A|---------------------------------------|----|
E|-3-0----2h3-0--3/12--5h7-5-3-5-3-56--7-|-0--|

?Nunca estuve aquí querida?
G|--------------------------------------------------------------------
D|---------3--------------6-64--4----------7-75--5----------8-86--6---
A|-3---3-5--------3-4---4----------4-5---5----------5-6---6----------6
E|--------------------------------------------------------------------
   -                -                -                -
G|---------------------------------------------------------
D|-------9-97--7----------10-10|8-8----------11-11|10-10---
A|-7---7----------7-8---8------------8-9---9--------------9
E|---------------------------------------------------------
   -                -                  -
?Dale que tu canto pase por mi, por mi?
G|------------------------------------------------------------------------
D|---------12-12|10-10--10-12|12|12|12|12|12|12|12|12|12|12|12|12|12|12|12
A|-10---10----------------------------------------------------------------
E|------------------------------------------------------------------------
   -
               4 veces
G|---------------------------------------|----|
D|---------------------------------------|----|
A|---------------------------------------|----|
E|-3-0----2h3-0--3/12--5h7-5-3-5-3-56--7-|-0--|

 ?Cuiden de la nube viento?
G|--------------------------------------------------------------------
D|---------3--------------6-64--4----------7-75--5----------8-86--6---
A|-3---3-5--------3-4---4----------4-5---5----------5-6---6----------6
E|--------------------------------------------------------------------
   -                -                -                -
G|---------------------------------------------------------
D|-------9-97--7----------10-10|8-8----------11-11|10-10---
A|-7---7----------7-8---8------------8-9---9--------------9
E|---------------------------------------------------------
   -                -                  -
?Trepo por los sueños que están de mas, de mas?
G|------------------------------------------------------------------------
D|---------12-12|10-10--10-12|12|12|12|12|12|12|12|12|12|12|12|12|12|12|12
A|-10---10----------------------------------------------------------------
E|------------------------------------------------------------------------
   -
               4 veces
G|---------------------------------------|----|
D|---------------------------------------|----|
A|---------------------------------------|----|
E|-3-0----2h3-0--3/12--5h7-5-3-5-3-56--7-|-0--|

                       ?Antes del tiempo era todo azul, leve de suspension?
G|-----------------------------------------------------------------------
D|----------------------------------------------------------------------2
A|--7----7----7----7----7----7----7----7----7-7-7-5-5-------7-7-5--------
E|-0-0--0-0--0-0--0-0--0-0--0-0--0-0--0-0--0-0-------7-7-5-3-----5-5-3-3-

                 ?Al no haber gente, no habia??
G|------------------------------------------------------------------
D|-----------------------------------------------------------------2
A|--7----7----7----7----7----7----7----7-7-7-5-5-------7-7-5--------
E|-0-0--0-0--0-0--0-0--0-0--0-0--0-0--0-0-------7-7-5-3-----5-5-3-3-

                         ?antes del fruto la noticia corrio?
G|-----------------------------------------------------
D|-----------------------------------------------------
A|--7----7----7----7--5-445-44545-545-545-545-545-5-6-7
E|-0-0--0-0--0-0--0-0----------------------------------

                             ?luego del dia, el dragon vomito?
G|----9------9-----9---------------------------------------
D|---------------------------------------------------------
A|---------------------7--5-445-445-445-4-5-445-445-445-6-7
E|0-0----0-0---0-0----0-0----------------------------------

          ?el fuego, el fuego?(empieza el solo del flaco)
G|----9------9-----9---------------------------------------------
D|---------------------------------------------------------------
A|---------------------7-7-----10----75-75-7-------10----75-75-7-
E|0-0----0-0---0-0----0-0-5/10----------------5/10---------------

G|--------------------77-77-77-77-----------|
D|------------------------------------------|
A|------10----75-75-5-----------------------|
E|-5/10---------------------------3--0------|

                       ?Era,     año,      dia,     mes, minuto,   era
G|----------------------------------------------------------------------
D|----------------------------------------------------------------------
A|--7----7----7----7----7----7----7----7----7----7---7--8--9--10/--7-7--
E|-0-0--0-0--0-0--0-0--0-0--0-0--0-0--0-0--0-0--0-0-0-------------0-0-0-

    año,       dia,     mes, minuto?
G|------------------------------------------
D|------------------------------------------
A|--7----7----7----7----7-7--8--9--10/-7-7--
E|-0-0--0-0--0-0--0-0--0-0--------------0-0-

                ?Antes del cuerpo un narcotico, exploto con los dioses?
G|--------------------------------------------------------------------
D|-------------------------------------------------------------------2
A|--7----7----7----7----7----7----7--------7-7-5-5-------7-7-5--------
E|-0-0--0-0--0-0--0-0--0-0--0-0--0-0--0-0-0-------7-7-5-3-----5-5-3-3-

              ?y con lo hombres, el demonio?
G|-------------------------------------------------------------
D|------------------------------------------------------------2
A|--7----7----7----7----7----7----7-7-7-5-5-------7-7-5--------
E|-0-0--0-0--0-0--0-0--0-0--0-0--0-0-------7-7-5-3-----5-5-3-3-

                          ?presa del miedo el reloj se apuro?
G|------------------------------------------------------
D|------------------------------------------------------
A|--------7----7----7--5-445-44545-545-545-545-545-5-6-7
E|0-0-0--0-0--0-0--0-0----------------------------------

                             ?hojas del arbol cayendo en suspensión?
G|----9------9-----9---------------------------------------
D|---------------------------------------------------------
A|---------------------7--5-445-445-445-4-5-445-445-445-6-7
E|0-0----0-0---0-0----0-0----------------------------------

           ?ah!?           (empieza el solo del flaco)
G|----9------9-----9---------------------------------------------
D|---------------------------------------------------------------
A|---------------------7-7-----10----75-75-7-------10----75-75-7-
E|0-0----0-0---0-0----0-0-5/10----------------5/10---------------

G|--------------------77-77-77-77-----------|
D|------------------------------------------|
A|------10----75-75-5-----------------------|
E|-5/10---------------------------3--0------|
               4 veces
G|---------------------------------------|----|  h: hammer on
D|---------------------------------------|-7--|  /: slide
A|---------------------------------------|----|
E|-3-0----2h3-0--3/12--5h7-5-3-5-3-56--7-|-5--|

Suspensión (Invisible)

Nunca estuve aquí querida
Nunca estuve aquí, ni nunca
estare, no me canso no querida
Nunca tuve sueño
Ni nunca estare
Ah que duende no es tu puerta?
Nunca estuve aquí lo siento por mi
Halo de la hierba verde
Dale que tu canto pase por mi
Por mi, por mi, oh!!

Cuiden de la nube viento
La querida sol querida saldra
Nunca me abandones nena
Sola sin el sol ceguera tendras
Cuiden de su cuerpo blanco
Trepa por su cama en la oscuridad
Nunca estuve alli querida
Trepo por los sueños,
Que están de mas
De mas, de mas oh!

Antes del tiempo
Era todo azul
Y leve de suspensión
Al no haber gente
No había bien ni mal
No existia esperar
Antes del fruto
La noticia corrio
Luego del dia,
El dragon vomito el fuego
El fuego

Era, año, dia, mes, minuto
Era, año, dia, mes, minuto

Antes del cuerpo
Un narcotico exploto,
Con los Dioses
Y con los hombres
El demonio entro
Escapando de Dios
Presa del miedo
El reloj se apuro
Hojas del arbol
Cayendo en suspension

Mientras su musica se siga tocando y escuchando el carpo jamas morira,
vivira eternamente en la memoria de todos...
e-mail: zarathustra4321@

            
            
Suggest correction
Creating personal tab
Creating personal tab
You can edit any tab online and save it as your Personal.

You can edit, replace or remove any tab part or add personal notes – all changes will be seen only by you.

Personal tabs can be accessed anytime from any device, even offline.
Learn more »
Give kudos to tab author, rate the tab!
1 2 3 4 5
comments
print report bad tab
guest
Wanna post a correction for this tab? Suggest correction