Oops, an error
Loading. Please wait.

En Un Rincón tab

version 2
version 2

Whole song

20 views 1 this week
no commentswrite comment
1 2 3 4 5
3 more votes to show rating
add to favorites
×
Save as Personal and add changes to this tab that will be seen only by you. Learn more ›
×
You can save this tab as Personal to edit and correct it or add notes. All changes will be seen only by you. Learn more »
launch autoscroll
font size
0
reset
how to read this tab
guitar tuner
edit
Autoscroll
slow
fast
+/-
esc
set tempo
stop
EN UN RINCON

weno esta kancion es chevere aunke algunos imbeciles
dicen 'puta no me gusta porke ya es muy komercial'
¡¡muerte a esos webones de mierda 
ke no kaptan el mensaje de vida
ke transmite inyectores!!

INTRO
|----------------------------|
|----------------------------|
|----------------------------|
|----------------------------|
|--10-10-10-10-10b-10-10-10--|x 2
|----------------------------|

   G5 D5   E5 C5     G5 B5      E5       C5
|----------------------------------------------|
|----------------------------------------------|
|--12-11---12-11-9---12-11/9/7/9/11/9-9--11/9--|
|--xx--x---xx--x-x---xx--x-x-x-x--x-x-x---x-x--|
|--10--9---10--9-7---10--9/7/5/7/-9/7-7---9/7--|
|----------------------------------------------|


*verso (todo esto x 2)
G5 D5 E5 C5
G5 B5 E5 C5

al final de C5 (de la 2° linea) van estas oktavas
|-------------------|
|-------------------|
|--12-12-12-11-11---|
|--xx-xx-xx--x------|
|--10-10-10--9--9---|
|-------------------|

*koro 
B5 e5 C5 G5 G* (x2)
B5 E5 C5 (x1)


*el intro de nuevo(kambia un poko al final!!)

   G5 D5   E5 C5     G5 B5       E5       C5
|-------------------------------------------------------------|
|-------------------------------------------------------------|
|--12-11---12-11-9---12-12-12-12-14-16-16-17-16-17-16--17-16--|
|--xx--x---xx--x-x---xx-xx-xx-xx-xx-xx-xx-xx-xx-xx-xx--xx-xx--|
|--10--9---10--9-7---10-10-10-10-12-14-14-15-14-15-14--15-14--|x1
|-------------------------------------------------------------|

*verso 

*koro

*SOLO
  G5        D5            E5          C5
|---------------------------------------------------|
|---------------------------------------------------|
|------------------------------------------7--------|
|------------------5--5-7-9-7-5-7-5--5h7-9---9-7-5--|
|---5-5-5-5h7-5--7----------------------------------|
|-3-------------------------------------------------|

  G5        B5           E5               C5
|--------------------------------------------10----------|
|-----------------7--------8---8-10-8--10h12----12-10-8--|
|------7-7----7-9---9-7--9---9---------------------------|
|-7-5h7-----9--------------------------------------------|
|--------------------------------------------------------|
|--------------------------------------------------------|

   G5       D5     E5      C5              G5     B5 E5     C5
|------------------------------------------------------------------|
|--10-8-8-8-7-7-7--8-7-5-----------------------------8-7-5---------|
|------------------------7-55-44-5-4-----------7h9h7--------7h9-9--|
|------------------------------------7-9-7-5-5---------------------|
|------------------------------------------------------------------|
|------------------------------------------------------------------|


*puente
E5 G5 D5 E5 B5 E5 D5  [A|--55-33-22-00--| E5 G5 D5 E5 B5 E5 D5  [ahora es una subida en oktavas A|--D8/E8-E8-E8-E8-F#8-F#8--|
e5 G5 D5 E5 B5 e5 D5

*versos

*koro

NOTA:
  G*  D8  E8  F#8    E5  E5
e|----------------------------|
B|----------------------------|
G|-----7----9---11------------|
D|-----x----x----x--------9---|
A|-5---5----7----9----2---7---|
E|-2------------------0-------|

NOTA: si kieres la letra de la kancion mandame un mail
o kualkier korrecion, inytekamcio, o peticion, a mi mail pex ejej
ahh de veras!! un saludo a mis patas de [ chevede!!!

  entren y eskuchen!!

            
            
Suggest correction
Creating personal tab
Creating personal tab
You can edit any tab online and save it as your Personal.

You can edit, replace or remove any tab part or add personal notes – all changes will be seen only by you.

Personal tabs can be accessed anytime from any device, even offline.
Learn more »
Give kudos to tab author, rate the tab!
1 2 3 4 5
comments
print report bad tab
guest
Wanna post a correction for this tab? Suggest correction