Oops, an error
Loading. Please wait.

En Un Rincón tab

version 3
version 3

Whole song

20 views 1 this week
no commentswrite comment
1 2 3 4 5
3 more votes to show rating
add to favorites
×
Save as Personal and add changes to this tab that will be seen only by you. Learn more ›
×
You can save this tab as Personal to edit and correct it or add notes. All changes will be seen only by you. Learn more »
launch autoscroll
font size
0
reset
how to read this tab
guitar tuner
edit
Autoscroll
slow
fast
+/-
esc
set tempo
stop
Hola gente esta es mi primera cancion k subo es solo los intros y el
solo, luego pondre los acordes pero se pueden ayudar en la otra
tablatura.

 * --> significa que se toca la nota varias veces (escuchen la canción
       y se dan cuenta).
 / --> significa "slide" o arrastre.


Intro 1:

e------------------------------------------------------------
B------------------------------------------------------------
G------------------------------------------------------------
D-5*-4*-5*-2*-5*-4-2-0-2-4-2--4-2----------------------------
A------------------------------------------------------------
E------------------------------------------------------------

Intro 2:

e------------------------------------------------------------
B------------------------------------------------------------
G------------------------------------------------------------
D-5*-4*-5*-2*-5*/999-10-9--10-9-10-9--10-9-------------------
A------------------------------------------------------------
E------------------------------------------------------------

Solo:

e------------------------------------------------------------
B------------------------------------------------------------
G----------------------------------------7-------------------
D---------------5--5-7-9-7-5-7-5---5-7-9---9-7-5-------------
A---5-5-7-5---7--7-------------------------------------------
E-3----------------------------------------------------------

e---------------------------------------------10-------------
B-----------------7---------8---8-10-8---10/12--12-10-8------
G---5/7-7-----7-9---9-7----9---9-----------------------------
D-7----------9-----------------------------------------------
A------------------------------------------------------------
E------------------------------------------------------------

e------------------------------------------------------------
B------------------------------------------------------------
G---8------8----8------7------7----7-------------------------
D-----9--9----9----------9--9----9---------------------------
A------------------------------------------------------------
E------------------------------------------------------------

e------------------------------------------------------------
B-8*--7*------------------------------------8-7-5-3-5v-------
G---------9*--7*--5*--4p5------------7h9-7-------------------
D--------------------------7-7-5-5---------------------------
A------------------------------------------------------------
E------------------------------------------------------------

Sugerencias,comentarios o pedidos me escriben a mi correo:
punking_lex93@

            
            
Suggest correction
Creating personal tab
Creating personal tab
You can edit any tab online and save it as your Personal.

You can edit, replace or remove any tab part or add personal notes – all changes will be seen only by you.

Personal tabs can be accessed anytime from any device, even offline.
Learn more »
Give kudos to tab author, rate the tab!
1 2 3 4 5
comments
print report bad tab
guest
Wanna post a correction for this tab? Suggest correction