Oops, an error
Loading. Please wait.

Salvación tab

5 views 1 this week
no commentswrite comment
1 2 3 4 5
3 more votes to show rating
add to favorites
×
Save as Personal and add changes to this tab that will be seen only by you. Learn more ›
×
You can save this tab as Personal to edit and correct it or add notes. All changes will be seen only by you. Learn more »
launch autoscroll
font size
0
reset
how to read this tab
guitar tuner
edit
Autoscroll
slow
fast
+/-
esc
set tempo
stop
INYECTORES
SALVACION
ROMPECAMINOS

Hola gente aca les mando el solo de esta buena cancion. 
Los acordes lo encuentran en la otra tablatura.

LEYENDA
h - hammer on
p - pull off
b - bend 
br - bend and release (haciendo un bend y regresandolo)
/ - slide o arrastre
x - muteado
* - tocar varias veces (escuchan la canción y lo sacan)

SOLO:

e----------------  se deja que suene
B--8b------------   un buen tiempo esta nota

e-----------------------------------------------
B-------------------------------10--------------
G--9b-9b-9b-x-9---9b-9b-9b---9b----9p7-5h7--5---

e-----------------------------------------------
B---------------13---15br-----13---13-----------
G--14*-14br---14--14--------14--14b---14--------

D-----------------------------------------------
A-12-12-12-12-14-15---17-19---19-19-20-19-------
E-----------------------------------------------

e-----------------------------------------------
B--17-20-22br----20p17p15-17-20-17--------------
G-----------------------------------------------

e-20h22br---20p17-17-20b----------------15b-15b-15b-
B---------------------------15b-15b-15b-------------
G---------------------------------------------------


Cualquier pedido, sugerencia, escribanme a 
forever_ch2000@
Suggest correction
Creating personal tab
Creating personal tab
You can edit any tab online and save it as your Personal.

You can edit, replace or remove any tab part or add personal notes – all changes will be seen only by you.

Personal tabs can be accessed anytime from any device, even offline.
Learn more »
Give kudos to tab author, rate the tab!
1 2 3 4 5
comments
print report bad tab
guest
Wanna post a correction for this tab? Suggest correction