Oops, an error
Loading. Please wait.

Allá En Tilcara tab

version 1
version 1

Whole song

80 views 3 this week
no commentswrite comment
1 2 3 4 5
3 more votes to show rating
add to favorites
×
Save as Personal and add changes to this tab that will be seen only by you. Learn more ›
×
You can save this tab as Personal to edit and correct it or add notes. All changes will be seen only by you. Learn more »
launch autoscroll
font size
0
reset
how to read this tab
guitar tuner
edit
Autoscroll
slow
fast
+/-
esc
set tempo
stop
MODIFICACION By Sanji._. a LA TRANSCRIPCION DE:
Alexis Tren Loco (ivan@


INTRO:

   Em      G      D      Am            Em     G     D   Am
e-|-0--3-5-7--5-3-5--3-2-0-|---------|-0--3-5-7--10-5--7-3-|---------|-
B-|----------------------1-|---1-----|---------------------|---------|-
G-|--------0---------------|-2-------|--------0------------|---------|-
D-|---------------0--------|---------|--------------0------|-----0h2-|-
A-|----------------------0-|-----0h2-|-------------------0-|-0h2-----|-
E-|-0----------------------|---------|-0-------------------|---------|-

Em      D/F#  G              Riff 1
Amanecí        allá en Tilcara,
Am       Em            D    Riff 2
con los amigos de la indiada.
E           D   G           Riff 1
Llevarme allí, quiso el destino.
Am        Em            D          Riff 3
Junto con quienes mi camino comparten.
Am  C/B C    D         Em          G
Tal vez grabada en las pircas, mi voz,
Am      C        D     Em     Riff 4
como un recuerdo haya quedado.
Am    C       D       Em        G
Como grabado ha quedado en mi ser,
Am      C        D     Em     Riff 5
de aquellos, su trato amable.


Anochecí, allá en Tilcara,
con los amigos que entre la indiada tengo.
Y fuí feliz. Grata experiencia,
al compartir su solitaria resistencia.
Pueda este canto que cantando estoy,
sumarle alivio a sus pesares.
O contentar a quien guste de saber,
que jamás te olvidaré.
Me despedí, de madrugada,
de quienes a cambio de nada me asistieron.
Y fuí feliz, grata experiencia,
al compartir su solitaria resistencia.
Pueda este canto que cantando estoy,
sumarle alivio a sus pesares.
O contentar a quien guste de saber,
que jamás lo olvidaré.


Riff 1:
e-|--------0-|-
B-|-3-1-0--1-|-
G-|--------2-|-
D-|--------2-|-
A-|--------0-|-
E-|----------|-

Riff 2:
e-|-5-3-2----0-|-
B-|-------3--0-|-
G-|----------0-|-
D-|----------2-|-
A-|----------2-|-
E-|----------0-|-

Riff 3:
e-|-3-2-0---0--|-
B-|-------2-0--|-
G-|---------0--|-
D-|---------2--|-
A-|---------2--|-
E-|---------0--|-

Riff 4:
e-|-0----0-3-0-0-|-
B-|-0---0-----3--|-
G-|-0--0---------|-
D-|-2------------|-
A-|-2------------|-
E-|-0------------|-

Riff 5:
e-|---------------|-
B-|---------------|-
G-|-------0-----0-|-
D-|-----4-----4---|-
A-|-2h3-----2-----|-
E-|---------------|-

espero que les sirva las modificaciones,
hacen sonar al tema, mas indiano y complejo, suerte...

Sanji._.

            
            
Suggest correction
Creating personal tab
Creating personal tab
You can edit any tab online and save it as your Personal.

You can edit, replace or remove any tab part or add personal notes – all changes will be seen only by you.

Personal tabs can be accessed anytime from any device, even offline.
Learn more »
Give kudos to tab author, rate the tab!
1 2 3 4 5
comments
print report bad tab
guest
Wanna post a correction for this tab? Suggest correction