Oops, an error
Loading. Please wait.

Si Lloras Por Mí tab

90 views 1 this week
no commentswrite comment
1 2 3 4 5
3 more votes to show rating
add to favorites
×
Save as Personal and add changes to this tab that will be seen only by you. Learn more ›
×
You can save this tab as Personal to edit and correct it or add notes. All changes will be seen only by you. Learn more »
launch autoscroll
font size
0
reset
how to read this tab
guitar tuner
edit
Autoscroll
slow
fast
+/-
esc
set tempo
stop
cualquier duda o comentario escríbanme a: 
saludos desde Pasto la ciudad sorpresa de Colombia.

Dm
   Si lloras por mí

|1-1-3-3-5-----  riff 1
|3-3-5-5-6-----
|--------------
|--------------
|--------------
|--------------

                   A 
Sera porque me quieres

|0-0-1-1-3----- riff 2
|2-2-3-3-5-----
|--------------
|--------------
|--------------
|--------------

          A 
Si sufres así (riff 2)

                     Dm
Será porque me extrañas (riff 1)

              F 
Recuerda tal vez (riff 1)


                      C 
Las cosas que han pasado (riff 2)

             Bb (SIbemol)
Qué lejos están

|--------------
|--------------
|--------------
|--3-2-0-3-----
|--------------
|--------------

                  A 
Qué lejos han quedado

CORO:

                Bb (SIbemol)
Y hoy lloras por mí

|--------------
|-----6-6-5-3-1
|--5h7-7-------
|--------------
|--------------
|--------------

C                      F 
  Porque  has quedado sola

|--------------
|--------------
|-----5-7-5----
|--5h7-7-------
|--------------
|--------------

             Bb (SIbemol)
La vida es así

C                  F 
y te has quedado sola

         A 
Muy solaaaa

                  A 
Porque me diste alas

|-------------12-----
|-10-10-11-10---10---
|--------------------
|--------------------
|--------------------
|--------------------

                    Dm
Por que aprendí a volar

|-------------13-----
|-10-10-11-10---10---
|--------------------
|--------------------
|--------------------
|--------------------

                          A 
porque el amor de las Manos

           Dm
Dejamos escapar


Si lloras por mí

Yo no tengo la culpa

Fui parte de ti y no te olvide nunca

Recuerdas quizás

Aquel beso apurado

Que deje al partir y en ti quedo guardado

va dedicada a la niña mas hermosa del mundo (J.E.R.M)

            
            
Suggest correction
Creating personal tab
Creating personal tab
You can edit any tab online and save it as your Personal.

You can edit, replace or remove any tab part or add personal notes – all changes will be seen only by you.

Personal tabs can be accessed anytime from any device, even offline.
Learn more »
Give kudos to tab author, rate the tab!
1 2 3 4 5
comments
print report bad tab
guest
Wanna post a correction for this tab? Suggest correction