Oops, an error
Loading. Please wait.

Pequeña Y Fragil tab

by ISIS
159 views 1 this week
no commentswrite comment
1 2 3 4 5
3 more votes to show rating
add to favorites
×
Save as Personal and add changes to this tab that will be seen only by you. Learn more ›
×
You can save this tab as Personal to edit and correct it or add notes. All changes will be seen only by you. Learn more »
launch autoscroll
font size
0
reset
how to read this tab
guitar tuner
edit
Autoscroll
slow
fast
+/-
esc
set tempo
stop
Esta es el intro de la rola

e|----5----5-----6h5---5---5----3---3--------------
B|-----------6-------------------------------------
G|-5----5------------5---5----4---4----4-----------
D|-------------------------------------------------
A|-------------------------------------------------
E|-------------------------------------------------

e|-5p3----3---------3-4p3-----3----3---3-----1---1-------1-1---3--4---5-
B|--------------------------------------------------2-------------------
G|-----4----4----3--------3------3---3-----2---2-------------2-3--4---5-
D|----------------------------------------------------------------------
A|----------------------------------------------------------------------
E|----------------------------------------------------------------------

e|------------------------------------------------------22r----22r-
B|-13--15----------------------------------------------------------
G|---------14-12r----------15-------15r----14p13-------------------
D|----------------------------------------------15-12 ~~~~~~~~-----
A|-----------------------------------------------------------------
E|-----------------------------------------------------------------


e|-22r---22--20-17-----17r-----17 ~~~~~-----------------------------
B|-----------------20------------------15--15------15-17b---17r--17 ~~
G|------------------------------------------------------------------
D|------------------------------------------------------------------
A|------------------------------------------------------------------
E|------------------------------------------------------------------

e|-----------------------------------------------------------
B|-17-----15p13h15---1315p13---------------------------------
G|---------------------------151415p1412---------------------
D|--------------------------------------------14s15 ~~~~~~~~-

F                                 C
Saber donde estas y como estas quisiera
A#              C      F        C
si te acordaras hoy de mí.

   F                            C
Fuiste el primer amor mi vida entera
    A#             C        F     C
ya nunca podré olvidarme de ti

        F                      C
Debo hacerte una confesión sincera
     A#         C          F    C
yo sigo esperándote como ayer.

      F             C
Tan pequeña es tan frágil es
   A#         Fº              F     C
sin ti lo sé, yo no puedo vivir

      F             C
Tan pequeña es tan frágil es
    A#      Fº             F            F       C     A#
sin ti lo sé yo no puedo vivir      la la la la la la la la la
   C     F       C
LA LA   LA LA  LA
       F             ,             C
Saber donde estas y como estas quisiera
 A#             C      F    C
si te acordaras hoy de mí

   F                             C
Cada noche sueño que tu estas conmigo
     A#                 C        F    C
que vuelvo a sentir tu voz y tu piel

      F
Tan pequeña es,
   A#        Fº               F    C
sin ti no se yo ya no puedo vivir.

        F
Tan pequeña es, (tanto yo la ame),
      C
tan frágil es (sí, sí, sí)
    A#       Fº                F     C
sin ti no sé yo ya no puedo vivir.

A#                    Fº                 A#
Siento que no encontrare una mujer como tu otra vez,
Dm  Am      A#    C
frágil como tú    OH OH OH OH OH OH

       F                           C
Saber donde estas y como estas quisiera
A#               C       F       C
si te acordaras hoy de mí.

   F                            C
Fuiste el primer amor mi vida entera
    A#            C              F        C
ya nunca podré olvidarme de ti.


ESTA ROLA SE LA DEDICO A LAURA LIZBETH
DONDE QUIERA QUE ESTES NENA
NUNCA TE OLVIDARE
UN SALUDO PARA EL FERCHO,PARA MI CARNAL
EL (RIVER),AL ROBERT Y ATODA LA BANDA DE IZTAPALAPA

            
            
Suggest correction
Creating personal tab
Creating personal tab
You can edit any tab online and save it as your Personal.

You can edit, replace or remove any tab part or add personal notes – all changes will be seen only by you.

Personal tabs can be accessed anytime from any device, even offline.
Learn more »
Give kudos to tab author, rate the tab!
1 2 3 4 5
comments
print report bad tab
guest
Wanna post a correction for this tab? Suggest correction