Oops, an error
Loading. Please wait.

A Quién Iré? chords

68 views 1 this week
no commentswrite comment
1 2 3 4 5
3 more votes to show rating
add to favorites
×
Save as Personal and add changes to this tab that will be seen only by you. Learn more ›
×
You can save this tab as Personal to edit and correct it or add notes. All changes will be seen only by you. Learn more »
launch autoscroll
font size
0
reset
transpose
0
reset
display chords
guitar tuner
edit
Autoscroll
slow
fast
+/-
esc
set tempo
stop
Strumming
There is no strumming pattern for this song yet. and get +5 IQ
INTRO:
      AQUI ENTRA LA GUITARRA Y ESTOS SON LOS
      ACORDES DEL ACOMPAÑAMIENTO:

      F A# (x3)

6----------------------------------------------
5----------------------------------------------
4----------------------------------------------
3----------7s9-7---------7s9-7-----------------
2---5s6-5---------5s6-5---------5s6-5--6s8-6---
1----------------------------------------------


       F                                   Am
EN EL MUNDO TENDREIS AFLICCION, EL DEJO ESCRITO MAS

    A#                     C     F
CONFIAR, YO HE VENCIDO AL MUNDO, EL HA SIDO FIEL A SUS

 Am                  A#              C           F
PROMESAS DE ESTAR CONMIGO Y NUNCA DEJARME, EL CONOCE

                    Am             A#
MI CORAZON Y SABE QUIEN SOY YO Y ANTE EL NADA PUEDO

  C
OCULTAR.

          Dm                       Am
EN MIS MOMENTOS MAS AMARGOS DE TRISTEZA Y SOLEDAD, EL

    A#                     F
ME AYUDA A SEGUIR EN ESTA VIDA HASTA EL FINAL, CUANDO

     Dm                              Am
EL PECADO TOCA A MI PUERTA Y ESTOY A PUNTO DE FALLAR,

    A#                         F                   Dm
EL CON SU TIERNA MIRADA NO ME DEJA FRACAZAR, EL REMUEVE

                     Am                        A#
MI CONCIENCIA, LA REMUEVE SIN PIEDAD Y CON UN NUDO EN LA

                 C
GARGANTA MI CORAZON PUEDE EXPRESAR:

          F                Am          A#
A QUIEN IRE? SEÑOR SI SOLO TU TIENES PALABRAS QUE LLENAN

   C               F                Am           A#
MI ALMA, A QUIEN IRE? SEÑOR SI SOLO TU PUEDES TOMAR MI

                   C               F                Am
CORAZON Y TRANSFORMARLO, A QUIEN IRE? SEÑOR SI SOLO TU

         A#                   C
TIENES PALABRAS QUE LLENAN MI ALMA.


INTER:
      AQUI ENTRA LA GUITARRA Y ESTOS SON LOS
      ACORDES DEL ACOMPAÑAMIENTO:

      F Am Dm C Dm F A# C A# C

6-------------------------------------------------------------------
5-------------------------------------------------------------------
4-------------------------------------------------------------------
3-12-------12-------------------------------------------------------
2----10-10----10--10-11-13-13s15-13--13-15-------11-13--13-15-------
1------------------------------------------12-13--------------12-13-


6---------------------------------------------------
5---------------------------------------------------
4---------------------------------------------------
3----------------------12-------------10------------
2-----15-----15----13-----10-10s11-10-----------13--
1--12-----12----12------------------------10s12-----


           F                 Am                 A#
ES TAN HERMOSO SONREIR Y SENTIR PLENA PAZ PERO QUE

                                     C          F
DIFICIL ES REIR CUANDO SE LLORA POR DENTRO, ME SIENTO

                         Am
COMO UN PAYASO QUE HACE REIR MIENTRAS ESTA EN EL ACTO

          A#                        C             F
PERO POR DENTRO SIENTO QUE ESTOY MURIENDO, MAS JESUS

                 Am             A#
SOLO EXTIENDE SU MANO CUANDO ME VE QUE VOY RUMBO AL

    C
FRACAZO.

          Dm
EN MIS MOMENTOS MAS AMARGOS......

          F                Am
A QUIEN IRE? SEÑOR SI SOLO TU......

     F       A#
A QUIEN IRE?


FINAL:
      AQUI ENTRA DE NUEVO EL INTRO Y LOS
      ACORDES DEL ACOMPAÑAMIENTO SON LOS MISMOS.

ESCRIBEME: soyunmilagro1978@
           soyunmilagro1978@

            
            
Suggest correction
Creating personal tab
Creating personal tab
You can edit any tab online and save it as your Personal.

You can edit, replace or remove any tab part or add personal notes – all changes will be seen only by you.

Personal tabs can be accessed anytime from any device, even offline.
Learn more »
Give kudos to tab author, rate the tab!
1 2 3 4 5
comments
print report bad tab
guest
Wanna post a correction for this tab? Suggest correction