Oops, an error
Loading. Please wait.

Ven A Él tab

116 views 1 this week
no commentswrite comment
1 2 3 4 5
3 more votes to show rating
add to favorites
×
Save as Personal and add changes to this tab that will be seen only by you. Learn more ›
×
You can save this tab as Personal to edit and correct it or add notes. All changes will be seen only by you. Learn more »
launch autoscroll
font size
0
reset
how to read this tab
guitar tuner
edit
Autoscroll
slow
fast
+/-
esc
set tempo
stop
          G                Bm          C
NUESTRO  PADRE  VINO  AL  MUNDO  A  MORIR  POR

   D              G               Bm
NOSOTROS  PARA  QUE  TUVIERAMOS  VIDA, VIDA

  C              D                 G
ETERNA  EN  ABUNDANCIA  Y  TUS  PECADOS  BORRADOS

Bm              C             D
ERAN  POR  LA  SANGRE  DE  JESUS.

        G           Bm        C
VEN  A  EL, VEN  A  EL  MI  CRISTO  TE  ESTA

    D                 G             Bm
LLAMANDO  NO  DIGAS  NO  EL  TE  ESPERA  CON  LOS

           C                    D             G
BRAZOS  ABIERTOS  TE  ESTE  LLAMANDO  VEN  A  EL,

        Bm        C                   D
VEN  A  EL  MI  CRISTO  TE  ESTA  LLAMANDO, TE

          G
ESTA  LLAMANDO.

INTER:
      AQUI ENTRA LA GUITARRA Y ESTOS SON LOS
      ACORDES DEL ACOMPAÑAMIENTO.

      Bm C D G Bm C D


6------------------------------------------
5------------------------------------------
4------------------------------------------
3--9----------------7-9--------------------
2----7-8-10-------------7-8-10-------------
1-----------7-7s8-7------------7-8-8s10-8--

6---------------------------
5---------------------------
4---------------------------
3---------------------------
2-----------------13--------
1--10s12-10-12-10----12-10--

6-----------------------------------------
5-----------------------------------------
4-----------------------------------------
3--7-9------------------------------------
2------7-8-10-----------------------------
1-------------7-7s8-7--8s10-8-10-8-7-8-7--

6---------------------------------------------
5---------------------------------------------
4---------------------------------------------
3---------------------------------------------
2---------------------------------------------
1--8s10-8-10-8-10-10s12-10-8--8-7-8-7-8-8s10--


        G           Bm        C
VEN  A  EL, VEN  A  EL  MI  CRISTO  TE  ESTA

    D                 G             Bm
LLAMANDO  NO  DIGAS  NO  EL  TE  ESPERA  CON  LOS

           C                    D             G
BRAZOS  ABIERTOS  TE  ESTA  LLAMANDO  VEN  A  EL,

        Bm        C                   D
VEN  A  EL  MI  CRISTO  TE  ESTA  LLAMANDO, TE

          G
ESTA  LLAMANDO.

INTER 2:
        AQUI ENTRA EL TECADLO Y ESTOS SON LOS
        ACORDES DEL ACOMPAÑAGMIENTGO.

         G Bm C D G Bm C D

            G             Bm          C
NO  DIGAS  NO  EL  TE  ESPERA, TE  ESPERA  CON

                D              G         Bm
LOS  BRAZOS  ABIERTOS  VEN  A  EL  MI  AMIGO

           C                         D
EL  TE  ESPERA  CON  LOS  BRAZOS  ABIERTOS  NO

        G     Bm        C
DIGAS  NO-O-O-O  EL  TE  ESPERA  CON  LOS  BRAZOS

   D                  G     Bm        C
ABIERTOS  NO  DIGAS  NO-O-O-O  EL  TE  ESPERA

                     D                  G
CON  LOS  BRAZOS  ABIERTOS  NO  DIGAS  NO.


ESPERO QUE LES SEA DE BENDICION.
DIOS TE BENDIGA.
ESCRIBEME: soyunmilagro1978@
Suggest correction
Creating personal tab
Creating personal tab
You can edit any tab online and save it as your Personal.

You can edit, replace or remove any tab part or add personal notes – all changes will be seen only by you.

Personal tabs can be accessed anytime from any device, even offline.
Learn more »
Give kudos to tab author, rate the tab!
1 2 3 4 5
comments
print report bad tab
guest
Wanna post a correction for this tab? Suggest correction