Oops, an error
Loading. Please wait.

Papa, Cuéntame Otra Vez tab

version 2
version 2

Whole song

130 views 1 this week
no commentswrite comment
1 2 3 4 5
3 more votes to show rating
add to favorites
×
Save as Personal and add changes to this tab that will be seen only by you. Learn more ›
×
You can save this tab as Personal to edit and correct it or add notes. All changes will be seen only by you. Learn more »
launch autoscroll
font size
0
reset
how to read this tab
guitar tuner
edit
Autoscroll
slow
fast
+/-
esc
set tempo
stop
************************************
*-Canción: Papá Cuéntame otra vez.-*
*-Disco: Atrapados en azul.-       *
*-Letra: Daniel Serrano.-          *
*-Música: Ismael Serrano.          *
************************************


RE               LA          SOL               RE 
-------2/3/2-------------------------------0---------------
-----3--------3---0--------2-0-----------3-------------3--
---2------------2--------2-------------0----0-------2----- 
-0------------------------------------------------0---------
----------------------0------------------------------------- 
--------------------------------0/2/3----------------------

----------------0------
-----3------2/3---2-- 
--2------2------------ 
---------------------- 
4-------2------------- 
---------------------- 
                  SOL          LA  
--------0-----------0------------0--- 
------2-----------3----------2/3-----  
----2------0----0-----0----2--------- 
--------------------------------------- 
------------------------0------------- 
-2-----------3-----------------------

Repite esto toda la canción con pequeñas variaciones 
.... y niñas en minifalda 
Sol(rasgado
para Abajo)  RE 
--3----3-------------0--------------------------------------- 
--3------3---------2---------3------3------3------3-------- 
--0--0------0----2-----0---2------2------2------2--------- 
--0----------------------0----------------------------------- 
--2------------0----------------4------2------0------------ 
--3---------------------------------------------------------- 


SOL         LA         RE      
--------3----------0---------------------------------------- 
------3----------2----------3---3------3------3----------- 
----0-----0----2------0---2----2------2------2----------- 
------------------------0----------------------------------- 
------------0----------------4------2------0-------------- 
-3--------------------------------------------------------- 


SLSI         La(rápido)     Si(m)      
--------3----------0--------------2------ 
------3----------2---2---0------3------- 
----0-----0----2-------2------4-----2-- 
------------------------------------------ 
------------0----------------2----------- 
-3--------------------------------------- 

FA#(m)(rápido)  SOL                  LA   
-----2------------3---------3----------0--------- 
---2---2--0---------3---------3----------2------ 
-2------2-------0-----0---0-----0-----2----2--- 
-------------------------------------------------- 
------------------------------------0------------ 
--------------3---------3------------------------ 

LA 7 
---0--------------- 
-----2---2-------- 
-0-----0---------- 
------------------- 
------------------- 
------------------- 


 
...aun sigue sucia la plaza 
 
Estos acordes son rascando  
LA, SI, 
 
MI                SI          LA             MI 
Queda lejos aquel mayo, queda lejos Saint Denis, 
DSOL#      Do#(m)          Sol#(m)      LA           SI       
que lejos queda Jean Paul Sartre, muy lejos aquel París, 
MI                   SI            LA               MI 
sin embargo a veces pienso que al final todo dio igual: 
DSOL#   Do#(m)       Sol#(m)       LA            SI  
las ostias siguen cayendo sobre quien habla de más. 
 
LA  DO#                SI    MI              Do#(m)  
Y siguen los mismos muertos podridos de crueldad. 
   LADO#             SI              MI         Do#(m)  
Ahora mueren en Bosnia los que morían en Vietnam. 
LA  DO#          SI              MI         Do#(m)  
Ahora mueren en Bosnia los que morían en Vietnam. 
LA               SI     LA            SI  (MI,SI,LA,FA#(m) SI,MI)
Ahora mueren en Bosnia los que morían en Vietnam.


Esta canción se la dedico a todos los q me quieren y a los que
tb va xa todos los amantes de esta musica y este cantante.

            
            
Suggest correction
Creating personal tab
Creating personal tab
You can edit any tab online and save it as your Personal.

You can edit, replace or remove any tab part or add personal notes – all changes will be seen only by you.

Personal tabs can be accessed anytime from any device, even offline.
Learn more »
Give kudos to tab author, rate the tab!
1 2 3 4 5
comments
print report bad tab
guest
Wanna post a correction for this tab? Suggest correction