Oops, an error
Loading. Please wait.

Para Médicos Y Amantes tab

version 1
version 1

Whole song

28 views 1 this week
no commentswrite comment
1 2 3 4 5
3 more votes to show rating
add to favorites
×
Save as Personal and add changes to this tab that will be seen only by you. Learn more ›
×
You can save this tab as Personal to edit and correct it or add notes. All changes will be seen only by you. Learn more »
launch autoscroll
font size
0
reset
how to read this tab
guitar tuner
edit
Autoscroll
slow
fast
+/-
esc
set tempo
stop
Bueno, Este es el tab de la cancion Ismael Serrano
Para medicos y amantes, Muy buena por cierto.
Como podran ver el tab lo hice con Guitar Pro,
entonces las notaciones que deje son:

^ - Rasgueo
h - Hammer on
p - Pull off

El tiempo y eso pus ya ustdes se lo daran segun la escuchen.
En cuanto al tab, trate de ser lo mas preciso posible,
obiamente tiene sus errores, y tambien quisiera pedirles
que si alguien se sabe bien la parte con la que termina el
3o y 4o, verso, donde se sube hasta el 7 traste (creo yo)
porque en esa parte tengo duda, aun no me termina de gustar
como se oye, pero si alguien la saca, hagan patria y pasenla no?

Bueno espero que ls guste y que se entretengan sacandola,
no esta muy dificil, solamente se escucha.

     ^        ^                  ^         ^
E||--2--------3h-5p-3----L--L-|---------5--3----------0--|
B||--3--------3---------------|--2---------3-------3-----|
G||--2--------3---------------|--2---2-----3----3--------|
D||--0--------0---------------|--0---------0-------------|
A||---------------------------|--------------------------|
E||---------------------------|--------------------------|


  ^             ^           ^           ^
--2p---0--0-----0--------|--------5--L--------3--L--|
--3----------3--3------3-|--2--L--------3--L--------|
--2-------------3--------|--2--L--------3--L--------|
--0-------------0--------|--0--L--------0--L--------|
-------------------------|--------------------------|
-------------------------|--------------------------|


  ^         ^            ^        ^                ^            ^
--2---------3---------|--------5--3----------0--|--2p--0--0-----0---------|
--3----3----3----3----|--2--------3-------3-----|--3---------3--3---------|
--2---------3---------|--2--2-----3----3--------|--2------------3----3----|
--0---------0---------|--0--------0-------------|--0------------0---------|
----------------------|-------------------------|-------------------------|
----------------------|-------------------------|-------------------------|


----------------0-------|--------------------------|
-----3-------1-----3----|--0--------0--------0-----|
--2-----1---------------|--------2-----2--------2--|
------------------------|-----0-----------0--------|
--2----------0----------|--------------------------|
--------0----------2----|--3--------3--------------|


                             ^           ^
--------------5-----------|--------------------------|
-----------3-----3--------|--3--------3--2--------2--|
--------0-----------0-----|--0-----0-----0-----0-----|
-----4-----------------4--|--2--2--------2--2--------|
--------------------------|--0-----------0-----------|
--0-----------------------|--------------------------|


  ^
----------------------------|--------------------------|
--1-----3s-5----3-----1-----|--0--------0--------------|
--0----------0-----------2--|--------2--------2--2-----|
--2--2-------------0--------|-----0--------0--------0--|
--0-------------------------|--------------------------|
----------------2-----------|--3--------3--------2-----|


              ^              ^        ^
--------------------------|-----0--2--3------------|
--------3-----3-----2-----|--3--------3------3-----|
--0--------0--0--------0--|--2--------3---------3--|
-----2--------2--2--------|--0--------0------------|
--------------0-----------|------------------------|
--0-----------------------|------------------------|


  ^        ^                ^            ^            ^         ^
--------5--3----------0--|--2p--0--0-----0---------|-------5---------3----|
--2--------3-------3-----|--3---------3--3---------|--2---------3---------|
--2--2-----3----3--------|--2------------3----3----|--2---------3---------|
--0--------0-------------|--0------------0---------|--0---------0---------|
-------------------------|-------------------------|----------------------|
-------------------------|-------------------------|----------------------|


  ^         ^            ^        ^                ^            ^
--2---------3---------|--------5--3----------0--|--2p--0--0-----0---------|
--3----3----3----3----|--2--------3-------3-----|--3---------3--3---------|
--2---------3---------|--2--2-----3----3--------|--2------------3----3----|
--0---------0---------|--0--------0-------------|--0------------0---------|
----------------------|-------------------------|-------------------------|
----------------------|-------------------------|-------------------------|


----------------0-------|--------------------------|
-----3-------1-----3----|--0--------0--------0-----|
--2-----1---------------|--------2-----2--------2--|
------------------------|-----0-----------0--------|
--2----------0----------|--------------------------|
--------0----------2----|--3--------3--------------|


                             ^           ^
--------------5-----------|--------------------------|
-----------3-----3--------|--3--------3--2--------2--|
--------0-----------0-----|--0-----0-----0-----0-----|
-----4-----------------4--|--2--2--------2--2--------|
--------------------------|--0-----------0-----------|
--0-----------------------|--------------------------|


  ^
----------------------------|--------------------------|
--1-----3s-5----3-----1-----|--0--------0--------------|
--0----------0-----------2--|--------2--------2--2-----|
--2--2-------------0--------|-----0--------0--------0--|
--0-------------------------|--------------------------|
----------------2-----------|--3--------3--------2-----|


              ^
--------------------------|-----------0h-2-----------|
--------3-----3-----2-----|--------3-------3----3----|
--0--------0--0--------0--|-----2----------0----2----|
-----2--------2--2--------|--0-----------------------|
--------------0-----------|--------------------------|
--0-----------------------|----------------0----2----|


--------------------------|--------------------------|
--0--------0--------0-----|--------------5-----3-----|
--------2--------2-----0--|--------4--------4-----4--|
-----0--------0-----------|-----2-----2--------------|
--------------------------|--------------------------|
--3--------3--------------|--4-----------4-----------|


--------------------------|--------------------0-----|
--2--------0--------0-----|--------------2--------2--|
--------2--------2-----2--|--------0--------0--------|
-----2--------2-----------|-----4-----4--------------|
--0--------0--------------|--1-----------1-----------|
--------------------------|--------------------------|


--------------------2-----|--------------------------|
-----------2--3-----------|--0--------0--------3-----|
--------4--------4-----4--|--------2-----0-----2-----|
-----4--------------------|-----0-----------0-----0--|
--2-----------2-----0-----|--------------------------|
--------------------------|--3-----------3-----2-----|


--------------3-----2-----|--0--------0--------0-----|
--0--------0-----0-----3--|--------3-----2--------2--|
--0-----0-----------------|-----0-----------0--------|
-----2--------------0-----|--------------------------|
--------------------------|--3-----------0-----------|
--0-----------0-----------|--------------------------|


  ^        ^               ^        ^
-----0--2--3------------|--------5--3--------L--|
--3--------3------3-----|--2--------3--------L--|
--2--------3---------3--|--2--2-----3--------L--|
--0--------0------------|--0--------0--------L--|
------------------------|-----------------------|
------------------------|-----------------------|


  ^                          ^           ^
--9--------9--7-----6-----|--5--------5--5-----3-----|
--7-----7-----------------|--7-----7-----3-----------|
--7--7-----------7-----7--|--7--7--------2--2-----2--|
--0-----------0-----------|--0-----------0-----------|
--------------------------|--------------------------|
--------------------------|--------------------------|


  ^           ^           ^        ^
--2--------2--3--------|--------5--3----------0--|
--3-----3-----3--------|--2--------3-------3-----|
--2--2--------3--------|--2--2-----3----3--------|
--0-----------0--------|--0--------0-------------|
-----------------------|-------------------------|
-----------------------|-------------------------|


  ^            ^
--2p--0--0-----0---------|----------------0-------|
--3---------3--3---------|-----3-------1-----3----|
--2------------3----3----|--2-----1---------------|
--0------------0---------|------------------------|
-------------------------|--2----------0----------|
-------------------------|--------0----------2----|


--------------------------|--------------5-----------|
--0--------0--------0-----|-----------3-----3--------|
--------2-----2--------2--|--------0-----------0-----|
-----0-----------0--------|-----4-----------------4--|
--------------------------|--------------------------|
--3--------3--------------|--0-----------------------|


  ^           ^              ^
--------------------------|----------------------------|
--3--------3--2--------2--|--1-----3s-5----3-----1-----|
--0-----0-----0-----0-----|--0----------0-----------2--|
--2--2--------2--2--------|--2--2-------------0--------|
--0-----------0-----------|--0-------------------------|
--------------------------|----------------2-----------|


                                         ^
--------------------------|--------------------------|
--0--------0--------------|--------3-----3-----2-----|
--------2--------2--2-----|--0--------0--0--------0--|
-----0--------0--------0--|-----2--------2--2--------|
--------------------------|--------------0-----------|
--3--------3--------2-----|--0-----------------------|


  ^        ^               ^        ^
-----0--2--3------------|--------5--3--------L--|
--3--------3------3-----|--2--------3--------L--|
--2--------3---------3--|--2--2-----3--------L--|
--0--------0------------|--0--------0--------L--|
------------------------|-----------------------|
------------------------|-----------------------|


  ^                          ^           ^
--9--------9--7-----6-----|--5--------5--5-----3-----|
--7-----7-----------------|--7-----7-----3-----------|
--7--7-----------7-----7--|--7--7--------2--2-----2--|
--0-----------0-----------|--0-----------0-----------|
--------------------------|--------------------------|
--------------------------|--------------------------|


  ^           ^           ^        ^
--2--------2--3--------|--------5--3----------0--|
--3-----3-----3--------|--2--------3-------3-----|
--2--2--------3--------|--2--2-----3----3--------|
--0-----------0--------|--0--------0-------------|
-----------------------|-------------------------|
-----------------------|-------------------------|


  ^            ^
--2p--0--0-----0---------|----------------0-------|
--3---------3--3---------|-----3-------1-----3----|
--2------------3----3----|--2-----1---------------|
--0------------0---------|------------------------|
-------------------------|--2----------0----------|
-------------------------|--------0----------2----|


--------------------------|--------------------------|
--0--------0--------0-----|--------------3--------3--|
--------2-----2--------2--|-----------0-----0--------|
-----0-----------0--------|--------4-----------4-----|
--------------------------|-----2--------------------|
--3--------3--------------|--0-----------------------|


  ^           ^              ^
--------------------------|----------------------------|
--3--------3--2--------2--|--1-----3s-5----3-----1-----|
--0-----0-----0-----0-----|--0----------0-----------2--|
--2--2--------2--2--------|--2--2-------------0--------|
--0-----------0-----------|--0-------------------------|
--------------------------|----------------2-----------|


                                         ^
--------------------------|--------------------------|
--0--------0--------------|--------3-----3-----2-----|
--------2--------2--2-----|--0--------0--0--------0--|
-----0--------0--------0--|-----2--------2--2--------|
--------------------------|--------------0-----------|
--3--------3--------2-----|--0-----------------------|


  ^        ^               ^        ^
-----0--2--3------------|--------5--3----------0--|
--3--------3------3-----|--2--------3-------3-----|
--2--------3---------3--|--2--2-----3----3--------|
--0--------0------------|--0--------0-------------|
------------------------|-------------------------|
------------------------|-------------------------|


  ^            ^            ^         ^            ^
--2p--0--0-----0---------|-------5---------3----|--0h--2------------L--||
--3---------3--3---------|--2---------3---------|--3---L------------L--||
--2------------3----3----|--2---------3---------|--2---L------------L--||
--0------------0---------|--0---------0---------|--0---L------------L--||
-------------------------|----------------------|----------------------||
-------------------------|----------------------|----------------------||

            
            
Suggest correction
Creating personal tab
Creating personal tab
You can edit any tab online and save it as your Personal.

You can edit, replace or remove any tab part or add personal notes – all changes will be seen only by you.

Personal tabs can be accessed anytime from any device, even offline.
Learn more »
Give kudos to tab author, rate the tab!
1 2 3 4 5
comments
print report bad tab
guest
Wanna post a correction for this tab? Suggest correction