Oops, an error
Loading. Please wait.

Que Andarás Haciendo tab

version 3
version 3

Whole song

43 views 1 this week
no commentswrite comment
1 2 3 4 5
3 more votes to show rating
add to favorites
×
Save as Personal and add changes to this tab that will be seen only by you. Learn more ›
×
You can save this tab as Personal to edit and correct it or add notes. All changes will be seen only by you. Learn more »
launch autoscroll
font size
0
reset
how to read this tab
guitar tuner
edit
Autoscroll
slow
fast
+/-
esc
set tempo
stop
Acá esta otra versión de Tab de este hermoso tema.
Esta sacado minuciosamente a oído,
y con la ayuda del Tab anterior
e pulido algunos detalles que lo hacen mas completo.
Los números entre paréntesis se oyen muy bajos
pero sirven para que se oiga mas lleno el tema.

Capo 3° traste.

Intro:

E |--------------------------------------0-|
B |--------1-0-------3-1p0-----------1p0---|
G |------0---------2-------0-------0-------|
D |----0---------0-------------0h2---------|
A |--------------------------3-------------|
E |--3---------2---------------------------|

E |-------2-3--3--------------------------|
B |-----1------|---------0---------3-(0)--|
G |--(2)-------|(0)----0-------2----------|
D |-1----------|---0h2-----0-----0--------|
A |------------|--------------------------|
E |------------0-------------2------------|

E |----------------0-----------------------------------|
B |----1p0---0-1-----1---3----------1p0-------3--------|
G |--------2---|-------0-|--------0-------2-----(2)----|
D |------------|-2-------|----0h2-----------0-----(0)--|
A |------------0---------2--3--------------------------|
E |--3----------------------------------2--------------|

__________________________________________________________________


E |-----------------------------------------------------------|
B |-------0------------1----(1)-------1--(p0)-------1----(0)--|
G |-----2---2--------2--(2)---------0-------------0--(0)------| Inter.
D |---0------(0)---3------(3)-----2-------------1------(1)----|
A |-----------------------------------------------------------|
E |-3------------3--------------3-------------3---------------|

__________________________________________________________________

E |--------------------------------------0-|
B |--------0---------3-1p0-----------1p0---|
G |------2---------2-------0-------0-------|
D |----0---------0-------------0h2---------|
A |--------------------------3-------------|
E |--3---------2---------------------------|
                                                              (A)
E |-------2-2s3-3----------|
B |-----1-------|----------|
G |--(2)--------|-0-----0--|
D |-1-----------|---0h2----|
A |-------------|----------|
E |-------------0----------|

E |------------------------------------------------|
B |--------3-------0------1-3---------1p0-------3--|
G |----2--------(0)-----0---|-------0-------2------|
D |------0-----0------2-----|---0h2-----------0----|
A |-------------------------2-3--------------------|
E |--2-------3-----(3)--------------------2--------|

_______________________________________________________________

E |---------(3)-------------------|
B |--------0-----------0-------1--|
G |------0-----------2-------2----|  (B)
D |----0-----------2-------1------|
A |----------------------2--------|
E |--3---------0-2----------------|
_______________________________________________________________

E |----------3-------0-------------0--------------|
B |--------0-----------1---------3---------0------|
G |-------(0)------------0---2---------1-----2-4--|
D |------2-------0h2-----------3---------0---|-|--|
A |----2-------3-----------2---------2-------|-|--|
E |--0---------------------------------------2-4--|
                                                           (C)
E |----------0-----------0-----------0--------------|
B |--------1-----------1-----------1-----1p0---0----|
G |------2-----------2-----------2-----------2------|
D |----2-----------2-----------2--------------------|
A |--0---------------------------------2-------(2)--|
E |------------0-1---------0-2----------------------|
_______________________________________________________________

E |----------3-------0-------------0--------------|
B |--------0-----------1---------3---------0------|
G |-------(0)------------0---2---------1-----2-4--|
D |------2-------0h2-----------3---------0---|-|--|
A |----2-------3-----------2---------2-------|-|--|
E |--0---------------------------------------2-4--|
                                                            (D)
E |------------------------------------------------------|
B |--------1------------3---1-----3-----1-----0-------3--|
G |------2--(2)-------2-----|-0---|-0---|-0---|-0---2----|
D |----2------------0-------|---2-|---0-|---2-|---0-|----|
A |--0----------------------3-----2-----0-----|-----|----|
E |-------------0-2---------------------------3-----2----|
_______________________________________________________________

E |--------------0-------2-3--3--------------------------|
B |----------1p0-------1------|---------0---------3-(0)--|
G |--------0--------(2)-------|(0)----0-------2----------|  (F)
D |----0h2---------1----------|---0h2-----0-----0--------|
A |--3------------------------|--------------------------|
E |---------------------------0-------------2------------|
_____________________________________________________________________

E |------------------------------------|
B |----------1p0------------3-1p0------|
G |--------0----(0)-----2---------2----|  (G)
D |----0h2--------(0)-----0--------(0)-|
A |--3---------------------------------|
E |-------------------2----------------|

E |-------3--------3----------1--|
B |-----0------1-----1p0-----0---|
G |-----0-----0--0----------0----|
D |---0------2-------------0-----|
A |---------3-------------2------|
E |-3--------------------3-------|
_____________________________________________________________________

INTRO
(con interludio)


(A)
Qué andarás haciendo ahora,
hecha una madeja en el sillón,
dibujando constelaciones en los huecos
de los cuadros que aún faltan por colgar.
(Inter.)
(A)
Qué andarás haciendo ahora,
apagando las luces del salón,
probándote quizá un vestido nuevo,
planeando una huida, ver el mar.
(B)
(C)
Y yo afilando lunas, perdido en el hotel,
encontrando tus caricias en el neceser.
(D)
Y yo buscándote en el espejo azul del baño,
en la ropa cansada del armario.
(F)
(A)
Qué andarás haciendo ahora,
cansada viendo la televisión,
guardando mi paz y mis retratos,
la costumbre de dormir al lado izquierdo.
(Inter.)
(A)
Qué andarás haciendo ahora,
maldiciendo la luz, el primer sol,
hermosa con los párpados hinchados,
regando las plantas, todos los recuerdos.
(B)
(C)
Y yo retirando hojas secas de la cama,
soñándome contigo bajo el agua.
(D)
Y yo recordando que olvidé tender la ropa,
preguntándome qué andarás haciendo ahora.
(G)


Que andarás haciendo ahora ???...
Es lo que me pregunto siempre.

            
            
Suggest correction
Creating personal tab
Creating personal tab
You can edit any tab online and save it as your Personal.

You can edit, replace or remove any tab part or add personal notes – all changes will be seen only by you.

Personal tabs can be accessed anytime from any device, even offline.
Learn more »
Give kudos to tab author, rate the tab!
1 2 3 4 5
comments
print report bad tab
guest
Wanna post a correction for this tab? Suggest correction